Wireless Stores - Fabric Chords & Tabs

 

Fabric Chords & Tabs

Wireless Stores Chords & Tabs

Version: 1 Type: Tab 0 ratings
1 star 2 stars 3 stars 4 stars 5 stars
comments

Fabric Tab

   
#-----------------------------------------------------------------------------#
#-- File created with Instab - http://www.pconline.com/~smcarey/instab.html --#
#-----------------------------------------------------------------------------#

Author/Artist: The Wireless Stores  www.t-w-s.info
Title: Fabric
Tabber: Andrew Biles
Eb tuning Eb, Ab, Db, Gb, Bb, Eb

-----------------------------------------------------------------------------
---3-3-3-3---3-3-3-3---3-3-3-3--------------3-3-3-3---3-3-3-3---3-3-3-3---3--
---0-0-0-0---0-0-0-0---0-0-0-0--------------0-0-0-0---0-0-0-0---0-0-0-0---0--
---0-0-0-0---0-0-0-0---0-0-0-0-----0h2p0----0-0-0-0---0-0-0-0---0-0-0-0---0--
-2-2-2-2-2-2-2-2-2-2-2-2-2-2-2-3-3--------2-2-2-2-2-2-2-2-2-2-2-2-2-2-2-2-2--
-3---------3---------3--------------------3---------3---------3---------3----
 Intro                                                                      

-------3-----2-----2--2--2-0-----0-----0-------------------------------
-3-3-3-3-----3-----3--3--3-1-----1-----1-------------------------------
-0-0-0-2-----2-----4--2--0-0-----0-----0-------------------------------
-0-0-0---------------------2-----0-----2-------0h2p0-------------------
-2-2-2---------------------3-----3-----3---3-3-------------------------
-----------------------------------------------------------------------
                           C chords pick out the note on the Db string  
[ Tab from: http://www.guitartabs.cc/tabs/w/wireless_stores/fabric_tab.html ]
-------------------------------
-------------------------------
-7--5--4-----------------------
-9--7--5-----------------------
-------------------------------
-------------------------------
 Play over last 3 D variations                                               

-----------------------------------------------------------------------------
---3-3-3---3-3-3---3-3-3--------------3-3-3-3---3-3-3-3---3-3-3-3---3-3-3-3--
---0-0-0---0-0-0---0-0-0--------------0-0-0-0---0-0-0-0---0-0-0-0---0-0-0-0--
---0-0-0---0-0-0---0-0-0-----0h2p0----0-0-0-0---0-0-0-0---0-0-0-0---0-0-0-0--
-2-2-2-2-2-2-2-2-2-2-2-2-3-3--------2-2-2-2-2-2-2-2-2-2-2-2-2-2-2-2-2-2-2-2--
-3-------3-------3------------------3---------3---------3---------3----------
                                                                             

-3--------2--------0--------3--------
-3--------3--------1--------3--------
-0--------2--------0--------0--------
-0--------0--------2--------0--------
-2-----------------3--------2--------
-3--------------------------3--------
 Verse                                                                       

-------------------------
-------------------------
----------/7---5----4----
----------/9---7----5----
-------------------------
-------------------------
 guitar 2                                                                 

-------0---------0--|--2---
-------0---------1--|--3---
-------0---------0--|--2---
-------2---------2--|--0---
-------2---------3--|------
-3-2-0-0------------|------
                x3                                                  

-3--------0-------|----7-----
-3--------1-------|--8---8---
-0--------0-------|----------
-0--------2-------|----------
-2--------3-------|----------
-3----------------|----------
 guitar 1           guitar 2

figure out the order yourself
any questions? andrewbiles@hotmail.com
Comments