Wir Sind Helden - Labyrinth Chords & Tabs

 

Labyrinth Chords & Tabs

Wir Sind Helden Chords & Tabs

Version: 1 Type: Bass Tab 0 ratings
1 star 2 stars 3 stars 4 stars 5 stars
comments

Labyrinth Bass Tab

   
-------------------------------------------------------------------------------
			    Wir sind Helden - Labyrinth
-------------------------------------------------------------------------------

Tabbed By : Sören Schaller
e-mail: s.schaller@gmail.com

Tuning: Standard (EADG)

   Intro & Verse
                 x3			       x3
G|---------------|------------------|----------|-------------------|
D|---------------|------------------|----------|-------------------|
A|---------------|------------------|----------|-------------------| (x3)
E|--10-10-10-10--|--5-5-5-5-5-5-5-5-|--7-7-7-7-|--7-7-7-7-7-7-7-7--|


   Chorus 1

G|----------------------------------------------------------------------------|
D|----------------------------------------------------------------------------|
A|----------------------------------------------------------------------------|
E|-----0-0-0---0-0-0-0-0-0-0-0-2-2-2-2-2-2-2-2/7-7-7-7/9-9-9-9/12-12-12-12/14-|
    pm - - - |

G|----------------------------------------------------------------|
D|----------------------------------------------------------------|
A|----------------------------------------------------------------|
E|--14-14-14h15-12-12-12-12-12-12-12-12\10-10-10-10-10-10-10-10\7-|
[ Tab from: http://www.guitartabs.cc/tabs/w/wir_sind_helden/labyrinth_btab.html ]
G|------------------------------------|
D|------------------------------------|
A|------------------------------------|
E|--7-7-7-7-7-7-7\5-5-5-5-5-5-5-5-----|

G|----------------------------------------------------------------------------------|
D|----------------------------------------------------------------------------------|
A|----------------------------------------------------------------------------------|
E|--0-0-0-0-0-0-0-0-2-2-2-2-2-2-2-2/7-7-7-7/9-9-9-9/12-12-12-12/14-14-14-14h15\-----|


   Chorus 2 (play till end)

G|----------------------------------------------------------------------------------|
D|----------------------------------------------------------------------------------|
A|----------------------------------------------------------------------------------|
E|--12-12-12-12-12-12-12-12\10-10-10-10-10-10-10-10\7-7-7-7-7-7-7-7\5-5-5-5-5-5-5-5-|

G|----------------------------------------------------------------------------------|
D|----------------------------------------------------------------------------------|
A|----------------------------------------------------------------------------------|
E|--0-0-0-0-0-0-0-0-2-2-2-2-2-2-2-2/7-7-7-7/9-9-9-9/12-12-12-12/14-14-14-14h15\-----|


Legend
==========
| /  slide up
| \  slide down
| h  hammer-on
| p  pull-off
| ~  vibrato
| +  harmonic
| x  Mute note
===============================================================================
Comments