Wir Sind Helden - Gekommen Um Zu Bleiben Chords & Tabs

 

Gekommen Um Zu Bleiben Chords & Tabs

Wir Sind Helden Chords & Tabs

Version: 1 Type: Tab 0 ratings
1 star 2 stars 3 stars 4 stars 5 stars
comments

Gekommen Um Zu Bleiben Tab

   
-------------------------------------------------------------------------------
                   Gekommen um zu bleiben - Wir sind Helden
-------------------------------------------------------------------------------
Tabbed by: Martin Messner
Email: bigbonsai@hotmail.de

Tuning: E-Standard

//////////////////////////////////////////////
//                                          //
//  RATING THIS TAB TAKES ABOUT 5 SECONDS   //
//  AND HELPS ME TO IMPROVE MY WORK         //
//                                          //
//////////////////////////////////////////////

Mainpart (Chorus and Verses)
e|----------8--------------8---------------8----8---------8----8----8-----|
B|----------9--------------9---------------9----9---------9----9----9-----|
G|----------10-------------10--------------10---10--------10---10---10----|
D|----------10-------------10--------------10---10--------10---10---10----|
A|----------8--------------8---------------8----8---------8----8----8-----|
E|----------8--------------8---------------8----8---------8----8----8-----|
    |               |               |               |               |
    Beat(1st)       Beat(2nd)       Beat(3rd)       Beat(4th)       Beat(1st)

Prechorus
[ Tab from: http://www.guitartabs.cc/tabs/w/wir_sind_helden/gekommen_um_zu_bleiben_tab.html ]
e|---------------------------------------------------|
B|---------------------------------------------------|
G|--------10----------------------9------------------|
D|--------10----------------------9------------------|
A|--------8-----------------------7------------------|
E|---------------------------------------------------|
Ihr sagt „Was so abgeht must doch bitte come down“



e|---------------------------------------------------|
B|---------------------------------------------------|
G|-------------8-----------------7-------------------|
D|-------------8-----------------7-------------------|
A|-------------6-----------------5-------------------|
E|---------------------------------------------------|
   Ich sag den Untergang ab ohne runter zu schauen


e|------------------------------------------------------------------------|
B|------------------------------------------------------------------------|
G|------------------------------------------------------------------------|
D|----8----------------7-------------------6---------------5--------------|
A|------------------------------------------------------------------------|
E|------------------------------------------------------------------------|
  Wir geh'n nicht,aber wenn wir geh'n dann geh'n wir in Scheiben


e|------------------------------------------------------------------------|
B|------------------------------------------------------------------------|
G|------------------------------------------------------------------------|
D|-4-(silence)------------------------------------------------------------|
A|------------------------------------------------------------------------|
E|------------------------------------------------------------------------|
             Entschuldigung, ich sagte wir sind gekommen     um zu bleiben

Comments