Wir Sind Helden - Gekommen Um Zu Bleiben Chords & Tabs

 

Gekommen Um Zu Bleiben Chords & Tabs

Wir Sind Helden Chords & Tabs

Version: 1 Type: Bass Tab 0 ratings
1 star 2 stars 3 stars 4 stars 5 stars
comments

Gekommen Um Zu Bleiben Bass Tab

   
-------------------------------------------------------------------------------
                   Gekommen um zu bleiben - Wir sind Helden
-------------------------------------------------------------------------------
Tabbed by: Martin Messner
Email: bigbonsai@hotmail.de

Tuning: E-Standard

//////////////////////////////////////////////
//                                          //
//  RATING THIS TAB TAKES ABOUT 5 SECONDS   //
//  AND HELPS ME TO IMPROVE MY WORK         //
//                                          //
//////////////////////////////////////////////
[ Tab from: http://www.guitartabs.cc/tabs/w/wir_sind_helden/gekommen_um_zu_bleiben_btab.html ]
Mainpart
G|--------------------------------------------------------------------|
D|--------------------------------------------------------------------|
A|-----------------------------------4--------4---3--1----------------|
E|---1-------3-------4-------5----------------------------4-----------|
     |               |               |               |     
     Beat(1st)       Beat(2nd)       Beat(3rd)       Beat(4th)



Prechorus (Ihr sagt "Was so abgeht must doch bitte come down")
          (Ich sag den Untergang ab ohne runter zu schauen)

G|-------------------------------------------------------|
D|-------------------------------------------------------|
A|--8--10--11--8--7--8--10--7--6--8--9--6--5--6--8--5----|
E|-------------------------------------------------------|
    |             |            |           |
    Was......     bitte......  Untergang...runter....


G|---------------------------------------------------------------------------|
D|---------------------------------------------------------------------------|
A|------8---------8-------7---------7----------6---------6-----5----5-----4--|
E|---------------------------------------------------------------------------|
    Wir geh'n nicht, aber wenn wir geh'n, dann geh'n wir in Scheiben
Comments