Wir Sind Helden - Du Erkennst Mich Nicht Wieder Chords & Tabs

 

Du Erkennst Mich Nicht Wieder Chords & Tabs

Wir Sind Helden Chords & Tabs

Version: 3 Type: Tab 0 ratings
1 star 2 stars 3 stars 4 stars 5 stars
comments

Du Erkennst Mich Nicht Wieder Tab

   
Should be played with CAPO on 3rd. Tabs relative to CAPO.
The first part of the song is fingerpicked, the last verse is power chords.

1st Guitar
|-----------|-----------|-----------|-----------|
|-----------|-----------|-----------|-----------|
|---0-----0-|---0-----0-|---0-----0-|---0-----0-|
|-----------|-----------|-----------|-----------|
|-3---3-3---|-2---2-2---|-3---3-3---|-2---2-2---|
|-----------|-----------|-----------|-----------|

|-----------|-----------|-----------|-----------|
|-----------|-----------|-----------|-----------|
|---0-----0-|---0-----0-|-----------|-----------|
|-----------|-----------|---2-----2-|-----------|
|-3---3-3---|-2---2-2---|-0---0-0---|---3-----3-|
|-----------|-----------|-----------|-1---1-1---|
[ Tab from: http://www.guitartabs.cc/tabs/w/wir_sind_helden/du_erkennst_mich_nicht_wieder_tab_ver_3.html ]
2nd Guitar (listen to the song to get it right)
|-----0-3-0-|-8-7---|-7-8-|-7-8-1-0-|
|-3-3-------|-----8-|-----|---------|
|-----------|-------|-----|---------|
|-----------|-------|-----|---------|
|-----------|-------|-----|---------|
|-----------|-------|-----|---------|


Du erkennst mich nicht wieder
Allein
Mein Gesicht sei noch gleich
Und du weißt nicht ob das reicht
Um nicht alleine zu sein

Du erkennst mich nicht wieder
Unerkannt
bin ich die halbe Nacht
noch um die Häuser gerannt

Ich erkenn hier nichts wieder
Alles müde und alt
und ich male uns beide
als Umriss aus Kreide
auf den Asphalt

Du erkennst mich nicht wieder
Unerkannt
hab ich dann drüben im Park
meine Kleider verbrannt

Ich erkenn mich nicht wieder
Nur mein Herz das noch schlägt
Und ich hebe die Arme
um zu sehen ob die warme
Nachtluft mich trägt

C                        Em
 Du erkennst mich nicht wieder
C    Em
 Unerkannt
C                        Em
 flieg ich ans Ende der Stadt
              Am
ans Ende der Welt
              F
und über den Rand
Comments