Wipers - Youth Of America Chords & Tabs

 

Youth Of America Chords & Tabs

Wipers Chords & Tabs

Version: 1 Type: Tab 0 ratings
1 star 2 stars 3 stars 4 stars 5 stars
comments

Youth Of America Tab

   
Hello, this is a tab from the band "The Wipers". They kind of invented punk
music, and still habe a huge fanclub today. Their official Homepage is 

http://www.zenorecords.com/

Also Nirvana covered two songs of them, the one is "D7" and "Return of the rat"

They come from Portland/Oregon, and I think they are totally unterestimated.
----------------------

Props go to John Sixkiller

Youth Of America
E---------------------------------------------------------------------(3X)
B------------------------------------------------------------------------
G--9-10-9-7-9---9-10-9-7-9---9-10-9-7-9-7---------7------------7---------
D-----------------------------------------10-8-10---10-8----10---10-8----
A--------------------------------------------------------8------------8--
E------------------------------------------------------------------------

E--12-12--13-13--12-12--10-10--12-12-12-12-12-12-12-12--
B--12-12--13-13--12-12--10-10--12-12-12-12-12-12-12-12--
G-------------------------------------------------------
D-------------------------------------------------------
A-------------------------------------------------------
E-------------------------------------------------------

E--12-12--13-13--12-12--10-10--12-12-12-12-12-12-12-12--
B--12-12--13-13--12-12--10-10--12-12-12-12-12-12-12-12--
G-------------------------------------------------------
D-------------------------------------------------------
A-------------------------------------------------------
E-------------------------------------------------------

E--12-12--13-13--12-12--10-10--12-12--10-10--8-8---------8-8--10-10--8-8--
B--12-12--13-13--12-12--10-10--12-12--10-10--8-8--12-12--8-8--10-10--8-8--
G-------------------------------------------------11-11-------------------
D-------------------------------------------------------------------------
A-------------------------------------------------------------------------
E-------------------------------------------------------------------------
[ Tab from: http://www.guitartabs.cc/tabs/w/wipers/youth_of_america_tab.html ]
E-------------------8-8--10-10--8-8-----------8-8-8-8--10\-
B--6-6-6-6-6-6-6-6--8-8--10-10--8-8--6-6-6-6--8-8-8-8--10\-
G--5-5-5-5-5-5-5-5-------------------5-5-5-5---------------
D----------------------------------------------------------
A----------------------------------------------------------
E----------------------------------------------------------

D
Youth of America is living in the jungle
                                              F5
Fighting for survival with the wrong place to go
D
Youth of America the pressure's all around
                                                          F5
The walls are coming down the walls are crumbling down on you
G             Bb           F5
It is time we rectify this now
      Eb             Bb
We've got to feel it now
Eb             Bb   F    D
Got to feel it now, now, now...

They attack you from the right side - down the left side
Down the middle 'til you don't know who you are
Stay around until you don't really matter
They'll try to put you six feet under the ground

It is time we rectify this now
We've got to save it now
Got to save it now, now, now...

[The rich get richer and the poorer get poorer ]
[Now there's no place left to go ]
[Got to get off of this rot...'cause I don't want to be born here again... ]
[Do you want to be born here again? ]
[This just ain't no existence... ]
[Beware of those guys in disguise... ]
[We're living in the jungle...fighting for survival... ]
[Can't wait much longer... ]

Hurry...

It is time we rectify this now
We've got to heal it now
Got to heal it now, now, now...

E------------------------------------------------------------------------
B------------------------------------------------------------------------
G--9-10-9-7-9---9-10-9-7-9---9-10-9-7-9-7---------7------------7---------
D-----------------------------------------10-8-10---10-8----10---10-8----
A--------------------------------------------------------8------------8--
E------------------------------------------------------------------------
    Youth of america...youth, youth, youth, youth, youth, youth, you...
Comments