Wipers - Wait A Minute Chords & Tabs

 

Wait A Minute Chords & Tabs

Wipers Chords & Tabs

Version: 1 Type: Tab 0 ratings
1 star 2 stars 3 stars 4 stars 5 stars
comments

Wait A Minute Tab

   
Props go to John Sixkiller

WAIT A MINUTE

E--8--8-8--3--3-3--5-5-5-5-
B--8--8-8--3--3-3--5-5-5-5-
G--5--5-5--0--0-0--2-2-2-2-
D--------------------------
A--------------------------
E--------------------------

                                           X3
E--------------------------|-----------------
B--------------------------|-----------------
G--5--5-5------------------|-----------------
D--5--5-5--5--5-5--7-7-7-7-|-7-7-7-7-7-7-7-7-
A--3--3-3--5--5-5--7-7-7-7-|-7-7-7-7-7-7-7-7-
E----------3--3-3--5-5-5-5-|-5-7-5-7-5-7-5-7-
[ Tab from: http://www.guitartabs.cc/tabs/w/wipers/wait_a_minute_tab.html ]
C                G          A5
Let's get just a little too proud
C                   A
That's the way it appears in the crowd
         F             G
But it's not quite the same
C                        G
So you think that you'll never get burnt
     F                          G
Then what are you doing waiting for your turn?
F
Wait a minute
C                   A
So is it that we're really on trial
F                        G
But nothing's ever gonna change our style...

Let's get just a little too loud
That's the way it's written in the clouds
But I'm so faraway
I thought you said I would never get hurt?
What am I doing crawling in this dirt?
Wait a minute
So just give a little smile
Nothing's ever gonna change for awhile
Comments