Wipers - Some Place Else Chords & Tabs

 

Some Place Else Chords & Tabs

Wipers Chords & Tabs

Version: 1 Type: Tab 0 ratings
1 star 2 stars 3 stars 4 stars 5 stars
comments

Some Place Else Tab

   
Someplace Else
Wipers
Follow Blind, 1987

This song is ingenious for it's swirling, delayed guitars, which means you need
two things: a delay pedal, and a chorus.
Both guitars need to have the chorus effect set about 15/100 and delay set at 1 sec.

Intro: (Gtr. 1)
E F# G
E F# G

Gtr 2:
E--------------------------------------------------
B------------------2-3-2-0-0~~---------2---3---2---
G--------------------------------------------------
D--------------------------------------------------
A--------------------------------------------------
E--------------------------------------------------

E--------------------------------------------------
B------------------2-3-2-0-0~~---------------------
G--------------------------------------------------
D--------------------------------------5\4---------
A-------------------------------------------5/7----
E---------------------------------------------0----

Verse:
E F#                      G
I think there's someplace else
E   F#             G
I'd take you there myself
E     F#     G        D F        E F#
Don't try so helpless over there...
[ Tab from: http://www.guitartabs.cc/tabs/w/wipers/some_place_else_tab.html ]
E F#                     G
I think there's some way else
E     F#          G
Let's find it for ourselves
E     F#     G        D F  E     E F#
Don't try so helpless over there...

Solo Chords:
A F# G E F#
E G F# E G F#
A F# G E F#
E G F# E G F#

Solo (Gtr. 2:)
E-------5-----------------------------5--------5---------
B-----5---7^--7-5-------------------5---5----5-----------
G--7^-------------7^7--5h7p5---5--7--------8------7-5----
D----------------------------7------------------------7--
A--------------------------------------------------------
E--------------------------------------------------------

E-----------------------------------------
B-----------------------------------------
G-----------------------------------------
D--5-4--5-4-5--0-0/2~~~--2-2-0------------
A------------------------------3-5-3^~~~--
E-----------------------------------------

I think there's someplace else
I'll take you there myself...
Don't try so helpless over there...

E------5----------8^-8-8-8-8-3---3-3~~-...
B----5---8^--8-5---------------5-------...
G--7^----------------------------------...
D--------------------------------------...
A--------------------------------------...
E--------------------------------------...
Comments