Wipers - Romeo Chords & Tabs

 

Romeo Chords & Tabs

Wipers Chords & Tabs

Version: 1 Type: Tab 0 ratings
1 star 2 stars 3 stars 4 stars 5 stars
comments

Romeo Tab

Romeo (Props go to John Sixkiller)
Wipers
Romeo/No Solution, 198

Intro:
                                 Repeat
E-------|------------------------------
B-------|------------------------------
G-------|------------------------------
D--12-\-|--0-5-3-0-5-0--0-5-0-3-0-3-5--
A--12-\-|--0-5-3-0-5-0--0-5-0-3-0-3-5--
E-------|------------------------------

E--------------------------------------------------------------
B--10-10-10-10-10-10-10-10-10-10-10-10-10-10-10-10-------------
G--10-10-10-10-10-10-10-10-10-10-10-10-10-10-10-10-------------
D--10-10-10-10-10-10-10-10-10-10-10-10-10-10-10-10-------------
A---8--8--8--8--8--8--8--8--8--8--8--8--8--8--8--8-------------
E--------------------------------------------------------------

E------------------------
B------------------------
G------------------------
D------------------------
A----------------10-\----
E----------------10-\----

E--------------------------------------------------
B--10-10-10-10-10-10-10-10-10-10-10-10-10-10-10-10-
G--10-10-10-10-10-10-10-10-10-10-10-10-10-10-10-10-
D--10-10-10-10-10-10-10-10-10-10-10-10-10-10-10-10-
A---8--8--8--8--8--8--8--8--8--8--8--8--8--8--8--8-
E--------------------------------------------------

E----------------------------------------------------------------------
B--10-10----12-12----10-10----8-8----10-10----12-12----10-10----8-8----
G--10-10----12-12----10-10----8-8----10-10----12-12----10-10----8-8----
D--10-10----12-12----10-10----8-8----10-10----12-12----10-10----8-8----
A---8--8----10-10-----8--8----6-6-----8--8----10-10-----8--8----6-6----
E----------------------------------------------------------------------

E-----------------------------------------------------------
B--10-10----15-15----10-10----12-12----10---8------------x--
G--10-10----15-15----10-10----12-12----10---8------------x\-
D--10-10----15-15----10-10----12-12----10---8---8~~~~~---x\-
A---8--8----13-13-----8--8----10-10-----8---6------------x\-
E---------------------------------------------------------\-

Romeo...
He walks the city at night
The tall dark buildings cast his ghostly shadow in his burning eyes
Oh...

E-----------------------------------------------------------------------------
B--10--12-12--10-10--7-7----------------------10-10--12-12--------------------
G--10--12-12--10-10--7-7----------------------10-10--12-12--------------------
D--10--12-12--10-10--7-7----------------------10-10--12-12--------------------
A---8--10-10---8--8--5-5-----------------------8--8--10-10--------------------
E-----------------------------------------------------------------------------
   Ro - meo,                Romeo roam.                     Roam Romeo. 
 

E-----------------------------(22)~~~~~~~~~~~~
B--10--15-15--10-10--10-10--------------------
G--10--15-15--10-10--10-10--------------------
D--10--15-15--10-10--10-10--------------------
A---8--13-13---8--8--12-12--------------------
E---------------------------------------------
                             Yeah.
[ Tab from: http://www.guitartabs.cc/tabs/w/wipers/romeo_tab.html ]
Romeo...
He cruises the streets at night...
Under the feet lay all the remains of the cruisers before him
Down behind the alley
He sees these green laser eyes
Saying "come closer, closer..."
Juliet!!!!!!!!!!!!!!!!!!!!!!!!!
Owwwwww!
He's still alone...

E-----------------------------------------------------------------------------
B--10--12-12--10-10--7-7----------------------10-10--12-12--------------------
G--10--12-12--10-10--7-7----------------------10-10--12-12--------------------
D--10--12-12--10-10--7-7----------------------10-10--12-12--------------------
A---8--10-10---8--8--5-5-----------------------8--8--10-10--------------------
E-----------------------------------------------------------------------------
   Ro - meo,                Romeo roam.                     Roam Romeo. 
 

E-----------------------------(22)~~~~~~~~~~~~
B--10--15-15--10-10--10-10--------------------
G--10--15-15--10-10--10-10--------------------
D--10--15-15--10-10--10-10--------------------
A---8--13-13---8--8--12-12--------------------
E---------------------------------------------
                             Yeah.


Solo: (2x)

E--------------------------------------------------------------------------
B--18-18-18-18--18-18-18-18--18-18-18-18--18-18-18--17-17--18-18--17-17----
G--17-17-17-17--17-17-17-17--17-17-17-17--17-17-17--16-16--17-17--16-16----
D--15-15-15-15--15-15-15-15--15-15-15-15--15-15-15--14-14--15-15--14-14----
A--------------------------------------------------------------------------
E--------------------------------------------------------------------------

E------------------------------------
B--18-18--17-17--18-18--17-17--18-18-
G--17-17--16-16--17-17--16-16--17-17-
D--15-15--14-14--15-15--14-14--15-15-
A------------------------------------
E------------------------------------

E-----------------------------------------------------------------------------
B--10--12-12--10-10--7-7----------------------10-10--12-12--------------------
G--10--12-12--10-10--7-7----------------------10-10--12-12--------------------
D--10--12-12--10-10--7-7----------------------10-10--12-12--------------------
A---8--10-10---8--8--5-5-----------------------8--8--10-10--------------------
E-----------------------------------------------------------------------------
   Ro - meo,                Romeo roam.                     Roam Romeo. 
 

E-----------------------------(22)~~~~~~~~~~~~
B--10--15-15--10-10--10-10--------------------
G--10--15-15--10-10--10-10--------------------
D--10--15-15--10-10--10-10--------------------
A---8--13-13---8--8--12-12--------------------
E---------------------------------------------
                             Yeah.


Romeo...
He walks the cities at night
The tall dark buildings cast a ghostly shadow in his burning eyes
Around the corner, there's nothing there, nothing there, nothing there...
Juliet!!!!!!!!!!!!!!
Juliet!!!!!!!!!!!!!!
Juliet don't do nothing!!!!!!

Romeo
Roam Romeo
Romeo Roam
Roam Romeo

'Cause theres no Juliet...
'Cause theres no Juliet...
'Cause theres no Juliet...
Oh Romeo
Roam Romeo
Romeo roam
Roam Romeo
Oh Romeo
Roam Romeo
Romeo roam
Roam Romeo
Comments