Wipers - Potential Suicide Chords & Tabs

 

Potential Suicide Chords & Tabs

Wipers Chords & Tabs

Version: 1 Type: Tab 0 ratings
1 star 2 stars 3 stars 4 stars 5 stars
comments

Potential Suicide Tab

Props go to John Sixkiller

Potential Suicide

Bass Intro:
G-|--------------------|
D-|o------------------o|
A-|o------------------o|
E-|---2--0-2-3-3-3-0---|

E-----------
B-----------
G--11-11-11-
D--11-11-11-
A---9--9--9-
E-----------
It's such a long way down

E--------
B--------
G--------
D--2-2-2-
A--2-2-2-
E--0-0-0-
Maybe I should try a floor below
[ Tab from: http://www.guitartabs.cc/tabs/w/wipers/potential_suicide_tab.html ]
E--------
B--------
G--9-9-9-
D--9-9-9-
A--7-7-7-
E--------
A softer landing might just ease the pain

E--------
B--------
G--------
D--4-4-4-
A--4-4-4-
E--2-2-2-
Being a loser is such a drag

Getting so depressed
Getting so depressed
Getting so depressed
Getting so depressed

Outro:
E-----------------------------------------------
B-----------------------------------------------
G---------------------------------5-5-5--7-7-7--
D--4-2-4-5--2-4-2-4-5--2-4-2-4-5--5-5-5--7-7-7--
A--4-2-4-5--2-4-2-4-5--2-4-2-4-5--3-3-3--5-5-5--
E--2-0-2-3--0-2-0-2-3--0-2-0-2-3----------------
Comments