Wipers - Doom Town Chords & Tabs

 

Doom Town Chords & Tabs

Wipers Chords & Tabs

Version: 1 Type: Tab 0 ratings
1 star 2 stars 3 stars 4 stars 5 stars
comments

Doom Town Tab

Props go to John Sixkiller

Song: Doom Town
Artist: Wipers
Album: Over The Edge
Year: 1982

Intro: (repeat over and over until Pt. 2)
E------------------------------------
B------------------------------------
G------------------------------------
D------------------------------------
A--9-10-9-7-7-9-9-9-9-9-9-9-7-9-9-9--
E--0--0-0-0-0-0-0-0-0-0-0-0-0-0-0-0--

Pt. 2
E----------------------------------------------------
B----------------------------------------------------
G----------------------------------------------------
D--12-12-12-12-12-12-12-12--11-11-11-11-11-11-11-11--
A--10-10-10-10-10-10-10-10---9--9--9--9--9--9--9--9--
E--10-10-10-10-10-10-10-10---9--9--9--9--9--9--9--9--

E-----------------------------------------------
B-----------------------------------------------
G-----------------------------------------------
D--11-11-11-11-11-11-11-11--11\9-9-9-9-9-9-9-9--
A---9--9--9--9--9--9--9--9---9\7-7-7-7-7-7-7-7--
E---9--9--9--9--9--9--9--9---9\7-7-7-7-7-7-7-7--

Pt. 3
E-------------------------------------------------------------
B-------------------------------------------------------------
G-------------------------------------------------------------
D--x-x-x--5--5--5-5-5--4--4--4-4-4--5--5--5-5-5--4--4--4-4-4--
A--x-x-x--5--5--5-5-5--4--4--4-4-4--5--5--5-5-5--4--4--4-4-4--
E--x-x-x--3--3--3-3-3--2--2--2-2-2--3--3--3-3-3--2--2--2-2-2--
[ Tab from: http://www.guitartabs.cc/tabs/w/wipers/doom_town_tab.html ]
E-------------------------------------------------------------
B-------------------------------------------------------------
G-------------------------------------------------------------
D--5--5--5-5-5--4--4--4-4-4--5--5--5-5-5--4-4-4-4-4-4-4-4-4-4-
A--5--5--5-5-5--4--4--4-4-4--5--5--5-5-5--4-4-4-4-4-4-4-4-4-4-
E--3--3--3-3-3--2--2--2-2-2--3--3--3-3-3--2-2-2-2-2-2-2-2-2-2-

Verse:
E----------------------------------------------------
B----------------------------------------------------
G----------------------------------------------------
D--12-12-12-12-12-12-12-12--11-11-11-11-11-11-11-11--
A--10-10-10-10-10-10-10-10---9--9--9--9--9--9--9--9--
E--10-10-10-10-10-10-10-10---9--9--9--9--9--9--9--9--
  Life's             incomplete

E-----------------------------------------------
B-----------------------------------------------
G-----------------------------------------------
D--11-11-11-11-11-11-11-11--11\9-9-9-9-9-9-9-9--
A---9--9--9--9--9--9--9--9---9\7-7-7-7-7-7-7-7--
E---9--9--9--9--9--9--9--9---9\7-7-7-7-7-7-7-7--
  Out on the               stre   -   ets

E-------------------------------------------------------------
B-------------------------------------------------------------
G-------------------------------------------------------------
D--x-x-x--5--5--5-5-5--4--4--4-4-4--5--5--5-5-5--4--4--4-4-4--
A--x-x-x--5--5--5-5-5--4--4--4-4-4--5--5--5-5-5--4--4--4-4-4--
E--x-x-x--3--3--3-3-3--2--2--2-2-2--3--3--3-3-3--2--2--2-2-2--
Living in doom         town...      doom         town...

---------------------------------------
Life's incomplete - out on the streets
Live in a doom town

Nothing'll ever change - remains the same
Live in a doom town

Doom town

People's blank stares - nobody cares
Live in a doom town

You can never win - living innocent
Live in a doom town
-------------------------------------

Tabbed on Friday, June 13th, 2003; by John Sixkiller.
Comments