Wipers - D7 Chords & Tabs

 

D7 Chords & Tabs

Wipers Chords & Tabs

Version: 2 Type: Tab 0 ratings
1 star 2 stars 3 stars 4 stars 5 stars
comments

D7 Tab

   
SONG: D-7
BAND: Wipers
ALBUM: Is This Real?

Okay i admit i first heard of this song from Nirvanas cover but the origional is ten
times better so get it now.

Oh and please rate me.

  Riff 1           Riff 2 (Verse end)
e|----------------|-----------------------------|
B|----------------|-----------------------------|
G|----------------|-----2~-----3------2-----3---|
D|-----2~-----0---|---2------3------2-----3---3-|
A|---2------3---3-|-0------1------0-----1-------|
E|-0------1-------|-----------------------------|
                    "Towards anti social. . ."

After 2nd verse, play riff one once then:
e|---------------------------------|
B|---------------------------------|
G|---------------------------------|
D|-----2~-----0-------2~-----0-3-2-|
A|---2------3---3---2------3---3-2-| x3
E|-0------1-------0------1-----1-0-|
  "Dimention seven. . ."
[ Tab from: http://www.guitartabs.cc/tabs/w/wipers/d7_tab_ver_2.html ]
  Now speed up and play: 
  Riff 4			            (Verse end)
e|---------------------------------|---------------------------------|
B|---------------------------------|---------------------------------|
G|---------------------------------|-2-2-2-2-2-2-2-2-3-3-3-3-5-5-3-3-|
D|-2-2-2-2-2-2-2-2-3-3-3-3-5-5-3-3-|-2-2-2-2-2-2-2-2-3-3-3-3-5-5-3-3-|
A|-2-2-2-2-2-2-2-2-3-3-3-3-5-5-3-3-|-0-0-0-0-0-0-0-0-1-1-1-1-3-3-1-1-|
E|-0-0-0-0-0-0-0-0-1-1-1-1-3-3-1-1-|---------------------------------|
 
  2nd Guitar (x2 before verse 3)
e|-----------------------------------|
B|-----------------------------------|
G|-9--9-9--9-10--10-10-12-12-10-10-9-|
D|-9--9-9--9-10--10-10-12-12-10-10-9-| (x2 before verse 3)
A|-7--7-7--7-8---8--8--10-10-8--8--7-| (x4 before verse 4)
E|-----------------------------------|
 
After verse 4 the 2nd guitar plays a solo while the first guitar plays riff one about
12 times. i havn't tabbed the solo cos id only get it wrong and piss you off. After
that the guitar cuts out for all of verse 5 apart from the last two lines. Then the
1st guitar plays riff 4 and the 2nd guitar occasionally plays this fill. 
e|----------|
B|----------|
G|-10-12~~~-|
D|-10-12~~~-|
A|-8--10~~~-|
E|----------|
Comments