Wipers - Anytime You Find Chords & Tabs

 

Anytime You Find Chords & Tabs

Wipers Chords & Tabs

Version: 1 Type: Tab 0 ratings
1 star 2 stars 3 stars 4 stars 5 stars
comments

Anytime You Find Tab

Anytime You Find
Wipers
Follow Blind, 1987

E--0------------0---0--
B--0------------0---0--
G--8------------8---9--
D--9------------9--10--
A--0------------0---0--
E--0------------0---0--
   ^            ^   ^

         
E-------//-|---0--
B------//--|---0--
G-----//---|---9--
D----//----|--10--
A--X//-----|---0--
E--X/------|---0--

E--0--0-0-0-0---0---0--0--0--0---0---|---0--
B--0--0-0-0-0---0---0--0--0--0---0---|---0--
G--8--8-8-8-8---9---9--9--9--9---9~~~|---9--
D--9--9-9-9-9--10--10-10-10-10--10~~~|--10--
A--0--0-0-0-0---0---0--0--0--0---0---|---0--
E--0--0-0-0-0---0---0--0--0--0---0---|---0--
[ Tab from: http://www.guitartabs.cc/tabs/w/wipers/anytime_you_find_tab.html ]
E--0--0-0-0-0---0---0--0--0--0---0---
B--0--0-0-0-0---0---0--0--0--0---0---
G--8--8-8-8-8---9---9--9--9--9---9~~~
D--9--9-9-9-9--10--10-10-10-10--10~~~
A--0--0-0-0-0---0---0--0--0--0---0---
E--0--0-0-0-0---0---0--0--0--0---0---

E--0--0-0-0-0---0---0--0--0--0---0---0---0--0--0--0---0---0---0--0--0--0---0-
B--0--0-0-0-0---0---0--0--0--0---0---0---0--0--0--0---0---0---0--0--0--0---0-
G--8--8-8-8-8---9---9--9--9--9---9--11--11-11-11-11--11--14--14-14-14-14--14-
D--9--9-9-9-9--10--10-10-10-10--10--12--12-12-12-12--12--15--15-15-15-15--15-
A--0--0-0-0-0---0---0--0--0--0---0---0---0--0--0--0---0---0---0--0--0--0---0-
E--0--0-0-0-0---0---0--0--0--0---0---0---0--0--0--0---0---0---0--0--0--0---0-

E---------------------------------------------------17^-
B---------------13-15-15^-15-13----13-15^-14----13------
G--12-14-14-14~~----------------14-----------12---------
D-------------------------------------------------------
A-------------------------------------------------------
E-------------------------------------------------------
Comments