Wipers - Alien Boy Chords & Tabs

 

Alien Boy Chords & Tabs

Wipers Chords & Tabs

Version: 1 Type: Tab 0 ratings
1 star 2 stars 3 stars 4 stars 5 stars
comments

Alien Boy Tab

Props go to John Sixkiller

ALIEN BOY

Bass:
G-----------------------
D-----------------------
A---------------3--3-3--
E--2--2-2-2--2----------

Guitar:
E-------------------------
B--10-10-10-10---10-10-10-
G--10-10-10-10---10-10-10-
D--10-10-10-10---10-10-10-
A---8--8--8--8----8--8--8-
E-------------------------

(Verse)
E------------------------------------------------------
B------------------------------------------10-10-10-10-
G------------------------------------------10-10-10-10-
D--X-X--4-5--2--X-X--4-5--2--X-X--4-5--2---10-10-10-10-
A--X-X--4-5--2--X-X--4-5--2--X-X--4-5--2----8--8--8--8-
E--X-X--2-3-----X-X--2-3-----X-X--2-3------------------
[ Tab from: http://www.guitartabs.cc/tabs/w/wipers/alien_boy_tab.html ]
(Chorus)
E------------------------------------------------------
B------------------------------------------------------
G------------------7----7-7------5---------------------
D------------------7----7-7------5---------------------
A------------------7----7-7------5---------------------
E------------------5----5-5------3---------------------
'Cause you're an alien, they hurt what they don't understand

Before the "got 'em on the run" part
E--2-3-2--0--0---
B---------0--0---
G----------------
D----------------
A----------------
E----------------

Go and grab your guns
You got him on the run
'Cause he's an alien
They hurt what they don't understand
So you got to turn away
There's no other way
You're an alien
They hurt what they don't understand
Got him on the run
Go and grab your gun
'Cause he's an alien, alien, alien, alien boy
Got no rights...
No rights at all
These are...
So you gotta turn away
There's no other way
'Cause you're an alien
They hurt what they don't understand
Comments