Wintersun - Beyond The Dark Sun Chords & Tabs

 

Beyond The Dark Sun Chords & Tabs

Wintersun Chords & Tabs

Version: 3 Type: Tab 0 ratings
1 star 2 stars 3 stars 4 stars 5 stars
comments

Beyond The Dark Sun Tab

D||---------------------------------|
A||---------------------------------|
F||--12----------------------11--9--|
C||---------------------------------|
G||------7-7-7-7-7-7-7-7-7-7--------|
D||---------------------------------|


                                   
----------------------------------|
----------------------------------|
--11------------------------------|
------7-7-7-7-7-7-7-7-7-7-7-7-7-7-|
----------------------------------|
----------------------------------|


                                             
--------------------------------------------|
--------------------------------------------|
--14--------------------------------12--11--|
------10-10-10-10-10-10-10-10-10-10---------|
--------------------------------------------|
--------------------------------------------|


                                      
-------------------------------------|
-------------------------------------|
--------------14--12--11-----12--11--|
--12-12-12-12-------------9----------|
-------------------------------------|
-------------------------------------|


                                                                     
---------------------------------|----------------------------------|
---------------------------------|----------------------------------|
--12----------------------11--9--|--11------------------------------|
---------------------------------|------7-7-7-7-7-7-7-7-7-7-7-7-7-7-|
------7-7-7-7-7-7-7-7-7-7--------|----------------------------------|
---------------------------------|----------------------------------|


                                             
--------------------------------------------|
--------------------------------------------|
--14--------------------------------12--11--|
------10-10-10-10-10-10-10-10-10-10---------|
--------------------------------------------|
--------------------------------------------|


                                      
-------------------------------------|
-------------------------------------|
--------------14--12--11-----12--11--|
--12-12-12-12-------------9----------|
-------------------------------------|
-------------------------------------|


                                                                     
---------------------------------|----------------------------------|
---------------------------------|----------------------------------|
--12----------------------11--9--|--11------------------------------|
---------------------------------|------7-7-7-7-7-7-7-7-7-7-7-7-7-7-|
------7-7-7-7-7-7-7-7-7-7--------|----------------------------------|
---------------------------------|----------------------------------|


                                             
--------------------------------------------|
--------------------------------------------|
--14--------------------------------12--11--|
------10-10-10-10-10-10-10-10-10-10---------|
--------------------------------------------|
--------------------------------------------|


                                                            
--------------------------------------|
--------------------------------------|
--------------14--12--11------12--11--|
--12-12-12-12-------------12----------|
--------------------------------------|
--------------------------------------|

Sweep Pick all these
----------------------12-17p12----------------17-|
-------------------12----------13----------17----|
----------------12----------------14----16-------|
--14----------9----------------------14----------|
-----10----10------------------------------------|
--------12---------------------------------------|


                                                   
--19p15----------------17-20p17----------------17-|
--------17----------16----------17----------17----|
-----------16----17----------------17----16-------|
--------------17----------------------19----------|
--------------------------------------------------|
--------------------------------------------------|


                                                   
--19p15----------------15-17p12----------------17-|
--------17----------16----------13----------16----|
-----------16----16----------------14----16-------|
--------------17----------------------14----------|
--------------------------------------------------|
--------------------------------------------------|


                                                                     
--19p15-----------------------------|
--------17----------------17~-------|
-----------16----------16-----------|
--------------14----14---(14)~------|
-----------------15-----------------|
------------------------------------|
                                                                



                                        
---------------------------------|----------------------------------|
---------------------------------|----------------------------------|
--12----------------------11--9--|--11------------------------------|
---------------------------------|------7-7-7-7-7-7-7-7-7-7-7-7-7-7-|
------7-7-7-7-7-7-7-7-7-7--------|----------------------------------|
---------------------------------|----------------------------------|


                                             
--------------------------------------------|
--------------------------------------------|
--14--------------------------------12--11--|
------10-10-10-10-10-10-10-10-10-10---------|
--------------------------------------------|
--------------------------------------------|


                                       
--------------------------------------|
--------------------------------------|
--------------14--12--11------12--11--|
--12-12-12-12-------------12----------|
--------------------------------------|
--------------------------------------|


                                                                     
---------------------------------|----------------------------------|
---------------------------------|----------------------------------|
--12----------------------11--9--|--11------------------------------|
---------------------------------|------7-7-7-7-7-7-7-7-7-7-7-7-7-7-|
------7-7-7-7-7-7-7-7-7-7--------|----------------------------------|
---------------------------------|----------------------------------|


                                             
--------------------------------------------|
--------------------------------------------|
--14--------------------------------12--11--|
------10-10-10-10-10-10-10-10-10-10---------|
--------------------------------------------|
--------------------------------------------|


                                                             
-------------------------------------|----------------------|
-------------------------------------|----------------------|
--------------14--12--11-----12--11--|--9----7--9--9--------|
--12-12-12-12-------------9----------|----------------------|
-------------------------------------|----------------------|
-------------------------------------|----------------------|


                                                                
--------------------|-------------------|----------------------|
----------8----7----|-------------------|----------12----13----|
--------------------|--9----------------|----------------------|
--------------------|-------------------|----------------------|
--------------------|-------------------|----------------------|
--------------------|-------------------|----------------------|


                                                                
--------------------|---------------------|--------------------|
--12----------------|----------8----10----|--12----------------|
--------------------|---------------------|--------------------|
--------------------|---------------------|--------------------|
--------------------|---------------------|--------------------|
--------------------|---------------------|--------------------|


                                                            
-------------------|-------------------|-------------------|
----------8--------|--7----------------|--------------8----|
-------------------|-------------------|-------------------|
-------------------|-------------------|-------------------|
-------------------|-------------------|-------------------|
-------------------|-------------------|-------------------|


                                                              
--------------------|--------------------|-------------------|
--10----------------|----------8----7----|--5----------------|
--------------------|--------------------|-------------------|
--------------------|--------------------|-------------------|
--------------------|--------------------|-------------------|
--------------------|--------------------|-------------------|


                                                              
--------------------|-------------------|--------------------|
----------8----7----|--5----------------|--------------20/---|
--------------------|-------------------|--------------------|
--------------------|-------------------|--------------------|
--------------------|-------------------|--------------------|
--------------------|-------------------|--------------------|


                                            
-------------------------------------------|
-------------------------------------------|
--12--------------------------------11--9--|
------10-10-10-10-10-10-10-10-10-10--------|
-------------------------------------------|
-------------------------------------------|


                                                                  
--------------------------------------|--------------------------|
--------------------------------------|------------------10------|
--11--------------12--11-12-11-9------|--12------11----------12--|
------9-9-9-9-9-9-----------------12--|--------------------------|
--------------------------------------|--------------------------|
--------------------------------------|--------------------------|


                                                                    
-----------------------|-------------------------------------------|
-----------------------|-------------------------------------------|
--11------------9--11--|--12--------------------------------11--9--|
-----------------------|------10-10-10-10-10-10-10-10-10-10--------|
-----------------------|-------------------------------------------|
-----------------------|-------------------------------------------|


                                                                  
--------------------------------------|--------------------------|
--------------------------------------|------------------10------|
--11--------------12--11-12-11-9------|--12------11----------12--|
------9-9-9-9-9-9-----------------12--|--------------------------|
--------------------------------------|--------------------------|
--------------------------------------|--------------------------|


                                                            
------------------------|----------------------------------|
--------------------10--|--12----------------------10--12--|
--11------------12------|----------------------------------|
------------------------|----------------------------------|
------------------------|------7-7-7-7-7-7-7-7-7-7---------|
------------------------|----------------------------------|


                                   
----------------------------------|
--13------------------------------|
----------------------------------|
------7-7-7-7-7-7-7-7-7-7-7-7-7-7-|
----------------------------------|
----------------------------------|


                                             
--------------------------------------------|
--------------------------------------------|
--14--------------------------------12--11--|
------10-10-10-10-10-10-10-10-10-10---------|
--------------------------------------------|
--------------------------------------------|


                                      
-------------------------------------|
---------------------------------10--|
--------------14--12--11-----12------|
--12-12-12-12-------------9----------|
-------------------------------------|
-------------------------------------|


                                                                      
----------------------------------|----------------------------------|
--12----------------------10--12--|--13------------------------------|
----------------------------------|----------------------------------|
----------------------------------|------7-7-7-7-7-7-7-7-7-7-7-7-7-7-|
------7-7-7-7-7-7-7-7-7-7---------|----------------------------------|
----------------------------------|----------------------------------|


                                             
--------------------------------------------|
--------------------------------------------|
--14--------------------------------12--11--|
------10-10-10-10-10-10-10-10-10-10---------|
--------------------------------------------|
--------------------------------------------|

[ Tab from: http://www.guitartabs.cc/tabs/w/wintersun/beyond_the_dark_sun_tab_ver_3.html ]
                                      
-------------------------------------|
-------------------------------------|
--------------14--12--11-----12--11--|
--12-12-12-12-------------9----------|
-------------------------------------|
-------------------------------------|


                                            
-------------------------------------------|
-------------------------------------------|
--12--------------------------------11--9--|
------10-10-10-10-10-10-10-10-10-10--------|
-------------------------------------------|
-------------------------------------------|


                                                                  
--------------------------------------|--------------------------|
--------------------------------------|------------------10------|
--11--------------12--11h12-11-9------|--12------11----------12--|
------9-9-9-9-9-9-----------------12--|--------------------------|
--------------------------------------|--------------------------|
--------------------------------------|--------------------------|


                                                                    
--------------------|------------------|---------------------------|
--------------------|------------------|---------------------------|
--11----------------|------------------|--12----12--12----11--9----|
--------------------|------------------|---------------------------|
--------------------|------------------|---------------------------|
--------------------|------------------|---------------------------|


                                                         
---------------------------|----------------------------|
---------------------------|----------------------------|
--11----11--11----9--------|--11----11--11----11--11----|
---------------------12----|----------------------------|
---------------------------|----------------------------|
---------------------------|----------------------------|


                                                        
---------------------------|---------------------------|
---------------------------|---------------------------|
--11--11----11--9----11----|--12----12--12----11--9----|
---------------------------|---------------------------|
---------------------------|---------------------------|
---------------------------|---------------------------|


                                                                
----------------------------------|----------------------------|
----------------------------------|----------------------------|
--11----11--11--14----12--14--12--|--11----11--11----11--11----|
----------------------------------|----------------------------|
----------------------------------|----------------------------|
----------------------------------|----------------------------|


                                                         
----------------------------|---------------------------|
----------------------------|---------------------------|
--11--11----11--12----14----|--12----12--12----11--9----|
----------------------------|---------------------------|
----------------------------|---------------------------|
----------------------------|---------------------------|


                                                         
---------------------------|----------------------------|
---------------------------|----------------------------|
--11----11--11----9--------|--11----11--11----11--11----|
---------------------12----|----------------------------|
---------------------------|----------------------------|
---------------------------|----------------------------|


                                                        
---------------------------|---------------------------|
---------------------------|---------------------------|
--11--11----11--9----11----|--12----12--12----11--9----|
---------------------------|---------------------------|
---------------------------|---------------------------|
---------------------------|---------------------------|


                                                                
----------------------------------|----------------------------|
----------------------------------|----------------------------|
--11----11--11--14----12--14--12--|--11----11--11----11--11----|
----------------------------------|----------------------------|
----------------------------------|----------------------------|
----------------------------------|----------------------------|


                                                  
----------------------------|--------------------|
----------------------------|--------------------|
--11--11----11--12----14----|--12----------------|
----------------------------|--------------------|
----------------------------|--------------------|
----------------------------|--------------------|


                                                             
--------------------|--------------------|------------------|
--------------------|--------------------|------------------|
--14----------------|--16----------------|------------------|
--------------------|--------------------|------------------|
--------------------|--------------------|------------------|
--------------------|--------------------|------------------|


                                                                   
--------------------|------------------------|--------------------|
--------------------|------------------------|--------------------|
--16----------------|--16------------16--19--|--19----------------|
--------------------|------------------------|--------------------|
--------------------|------------------------|--------------------|
--------------------|------------------------|--------------------|


                                                                 
------------------|--------------------|------------------------|
------------------|--------------------|------------------------|
------------------|--14----------------|------14----12----14----|
------------------|--------------------|------------------------|
------------------|--------------------|------------------------|
------------------|--------------------|------------------------|


                                                                   
--------------------|------------------|--------------------------|
--------------------|------------------|--------------------------|
--16----------------|------------------|--16----16----14----12----|
--------------------|------------------|--------------------------|
--------------------|------------------|--------------------------|
--------------------|------------------|--------------------------|


                                                      
--------------------------|--------------------------|
--------------------------|--------------------------|
--14----14----12----11----|--16----16----14----12----|
--------------------------|--------------------------|
--------------------------|--------------------------|
--------------------------|--------------------------|


                                                    
------------------------|--------------------------|
------------------------|--------------------------|
--11--------12----14----|--12----12----11----------|
------------------------|--------------------14----|
------------------------|--------------------------|
------------------------|--------------------------|


                                                
--------------------------|--------------------|
--------------------------|--------------------|
--11----11----------------|--11----------------|
--------------14--12------|--------------------|
--------------------------|--------------------|
--------------------------|--------------------|


                                                  
----------------------|--------------------------|
----------------------|--------------------------|
--12--------14--------|--16----16----14----12----|
----------------------|--------------------------|
----------------------|--------------------------|
----------------------|--------------------------|


                                                      
--------------------------|--------------------------|
--------------------------|--------------------------|
--14----14----12----11----|--14----14----12----11----|
--------------------------|--------------------------|
--------------------------|--------------------------|
--------------------------|--------------------------|


                                                    
------------------------|--------------------------|
------------------------|--------------------------|
------------------11----|--------------11----12----|
--14--------14----------|--14----14----------------|
------------------------|--------------------------|
------------------------|--------------------------|


                                                                   
--------------------------|--------------------|------------------|
--------------------------|--------------------|------------------|
--11----11----------------|--------------------|------------------|
--------------14----12----|--14----------------|------------------|
--------------------------|--------------------|------------------|
--------------------------|--------------------|------------------|


                                                      
--------------------------|--------------------------|
--------------------------|--------------------------|
--16----16----14----12----|--14----14----12----11----|
--------------------------|--------------------------|
--------------------------|--------------------------|
--------------------------|--------------------------|


                                                    
--------------------------|------------------------|
--------------------------|------------------------|
--16----16----14----12----|--11--------12----14----|
--------------------------|------------------------|
--------------------------|------------------------|
--------------------------|------------------------|


                                                      
--------------------------|--------------------------|
--------------------------|--------------------------|
--12----12----11----------|--11----11----------------|
--------------------14----|--------------14--12------|
--------------------------|--------------------------|
--------------------------|--------------------------|


                                            
--------------------|----------------------|
--------------------|----------------------|
--11----------------|--12--------14--------|
--------------------|----------------------|
--------------------|----------------------|
--------------------|----------------------|


                                                      
--------------------------|--------------------------|
--------------------------|--------------------------|
--16----16----14----12----|--14----14----12----11----|
--------------------------|--------------------------|
--------------------------|--------------------------|
--------------------------|--------------------------|


                                                    
--------------------------|------------------------|
--------------------------|------------------------|
--14----14----12----11----|------------------11----|
--------------------------|--14--------14----------|
--------------------------|------------------------|
--------------------------|------------------------|


                                                      
--------------------------|--------------------------|
--------------------------|--------------------------|
--------------11----12----|--11----11----------------|
--14----14----------------|--------------14----12----|
--------------------------|--------------------------|
--------------------------|--------------------------|


                                                    
--------------------------|------------------------|
--------------------------|------------------------|
--12----12----14----16----|--14--------12----11----|
--------------------------|------------------------|
--------------------------|------------------------|
--------------------------|------------------------|


                                                      
--------------------------|--------------------------|
--------------------------|--------------------------|
--------------11----12----|--11----11----------------|
--14----14----------------|--------------14----12----|
--------------------------|--------------------------|
--------------------------|--------------------------|


                                                            
--------------------|------------------|------------------||
--------------------|------------------|------------------||
--------------------|------------------|------------------||
--14----------------|------------------|------------------||
--------------------|------------------|------------------||
--------------------|------------------|------------------||

Not 100% I didn't write out where to put the palm mutes, you can figure that out easily enough.

high_voltage_acdc
Comments