Wintersun - Beyond The Dark Sun Chords & Tabs

 

Beyond The Dark Sun Chords & Tabs

Wintersun Chords & Tabs

Version: 1 Type: Tab 0 ratings
1 star 2 stars 3 stars 4 stars 5 stars
comments

Beyond The Dark Sun Tab

Off the new CD "Wintersun" Jari Maenpaa (Ex-Ensiferum) really has created a masterpiece
with this cd. Official site at wintermadness.com.
Kai Haito: Battery
Jari Maenpaa: everything else!

Intro w/Chorus Effect                                         x1
E|-----------------------------|-------------------------------|
B|-----------------------------|-------------------------------|
G|-----------------------------|-------------------------------|
D|-3-----------2-0-2-----------|-5-5555555-3-2-----5-3-2-2-3-2-|
A|---000000000-------3333333333|---------------333-------------|
E|-----------------------------|-------------------------------|
PM   .........       ..........    .......     ...
[ Tab from: http://www.guitartabs.cc/tabs/w/wintersun/beyond_the_dark_sun_tab.html ]
(No Effects)                                                  x2                                   
E|-----------------------------|-------------------------------|
B|-----------------------------|-------------------------------|
G|-----------------------------|-------------------------------|
D|-3-----------2-0-2-----------|-5-5555555-3-2-----5-3-2-2-3-2-|
A|---000000000-------3333333333|---------------333-------------|
E|-----------------------------|-------------------------------|
PM   .........       ..........    .......     ...

Rhythm under the keyboards
E|---------------------------------|--------------------------------|
B|---------------------------------|--------------------------------|
G|---------------------------------|--------------------------------|
D|---------------------------------|--------------------------------|
A|-5-------4-------5--------7------|-5-------2-------4-------3------|
E|-3-------2-------3--------5------|-3-------0-------2-------1------|
 
Back to the intro with no effects

Tabbed by: high_voltage_acdc
Comments