Wintersleep - Orca Chords & Tabs

 

Orca Chords & Tabs

Wintersleep Chords & Tabs

Version: 1 Type: Tab 0 ratings
1 star 2 stars 3 stars 4 stars 5 stars
comments

Orca Tab

   
visit www.wintersleep.com

The Song Is In Drop D  (E,B,G,D,A,D)
\ is slide down,  / is slide up

Guitar 1
intro/verse 1st pt    (x4)                      2nd pt (x1)   
E|-------------------------------------------|------------------|
B|-------------------------------------------|------------------|
G|-------------------------------------------|------------------|
D|--------------8--------------8-------------|-------------5----|
A|---------5--------------5------------5-----|---------3--------|
D|----5--------------5-------------5---------|----3-------------|

           3rd pt (x2)                         4th pt (x1)
E|-------------------------------------------|------------------|
B|-------------------------------------------|------------------|
G|-------------------------------------------|------------------|
D|--------------8--------------8-------------|-------------5----|
A|---------5--------------5------------5-----|---------3--------|
D|----5--------------5-------------5---------|----3-------------|

                5th pt (x1)                    6th pt (x1)
E|-------------------------------------------|------------------|
B|-------------------------------------------|------------------|
G|-------------------------------------------|------------------|
D|--------------8--------------8-------------|-------------5----|
A|---------5--------------5------------5-----|---------3--------|
D|----5--------------5-------------5---------|----3-------------|



           7th pt (x2)                         8th pt (x1)
E|-------------------------------------------|------------------|
B|-------------------------------------------|------------------|
G|-------------------------------------------|------------------|
D|--------------8--------------8-------------|-------------5----|
A|---------5--------------5------------5-----|---------3--------|
D|----5--------------5-------------5---------|----3-------------|



           9th pt (x1)                         10th pt (x1)                    
E|-------------------------------------------|------------------|
B|-------------------------------------------|------------------|
G|-------------------------------------------|------------------|
D|--------------8--------------8-------------|-------------5----|
A|---------5--------------5------------5-----|---------3--------|
D|----5--------------5-------------5---------|----3-------------| 


 
          11th pt (x1)                                  12th pt (x1)
E|---------------------------------------------------|---------------|
B|---------------------------------------------------|---------------|
G|---------------------------------------------------|---------------|
D|---------------12-------------------12-------------|-----------5---|
A|---------10------------------10----------------10--|-------5-------|
D|---10-----------------10----------------10---------|---3-----------|
[ Tab from: http://www.guitartabs.cc/tabs/w/wintersleep/orca_tab.html ]
   13th pt (x1)   14th pt (x1)    15th pt (x2)      
E|-----------------|-------|-----------------|
B|-----------------|-------|-----------------|
G|-----------------|-------|-----------------|
D|------8-----8----|-----5-|-----8-----8-----|
A|---5------5----5-|---5---|---5-----5-----5-|
D|-5------5----5---|-3-----|-5-----5----5----|


Guitar 2 (distortion)  16th pt (x1)
E|--------                              
B|--------                                     
G|--------                                     
D|---8----       
A|---5---- let this ring out  
D|---5----  

FOR THE SECOND VERSE, JUST FOLLOW THE SAME SET UP AT THE INTRO/VERSE (pts 1 to 15)

chorus  (this is the part right after he says monster) 
      E|---------------------------------------------------------------
      B|---------------------------------------------------------------
      G|---------------------------------------------------------------
      D|--8-8----8-----8-8----8----8-8-----8----8-8----8-----5-5--7-7--
      A|--5-5----5-----5-5----5----5-5-----5----5-5----5-----5-5--7-7--
      D|--5-5----5-----5-5----5----5-5-----5----5-5----5-----3-3--5-5--
PM...........          ...         ...          ...                 


      E|------------------------------------------------------------------
      B|------------------------------------------------------------------
      G|------------------------------------------------------------------
      D|--8-8----8-----8-8----8----8-8-----8----8-8----8-----12-12--14-14-
      A|--5-5----5-----5-5----5----5-5-----5----5-5----5-----12-12--14-14-
      D|--5-5----5-----5-5----5----5-5-----5----5-5----5-----10-10--12-12-
PM...........          ...         ...          ...          


This is the bridge part of the song, that is just the chorus riff with different timing
      E|-------------------------------------------------------------
      B|-------------------------------------------------------------
      G|-------------------------------------------------------------
      D|--8-8----8-----8-8----8----8-----8-8----8----8-----5-5--7-7--
      A|--5-5----5-----5-5----5----5-----5-5----5----5-----5-5--7-7--
      D|--5-5----5-----5-5----5----5-----5-5----5----5-----3-3--5-5--
PM...........          ...               ...


      E|----------------------------------------------------------------
      B|----------------------------------------------------------------
      G|----------------------------------------------------------------
      D|--8-8----8-----8-8----8----8-----8-8----8----8-----12-12--14-14-
      A|--5-5----5-----5-5----5----5-----5-5----5----5-----12-12--14-14-
      D|--5-5----5-----5-5----5----5-----5-5----5----5-----10-10--12-12-
PM...........          ...               ...          

outro (light distortion)
E|-----------------------------------------
B|-----------------------------------------
G|-----------------------------------------
D|--8-------8\-5-----5/-12----12\-5---5/-7-
A|--5-------5\-3-----3/-10----10\-3---3/-5-
D|--5-------5\-3-----3/-10----10\-3---3/-5-

thats it, if anyone, including the guys from the band see this tabs and think its wrong,
I'd be more than happy to correct it
Comments