Wintersleep - Danse Macabre Chords & Tabs

 

Danse Macabre Chords & Tabs

Wintersleep Chords & Tabs

Version: 1 Type: Tab 0 ratings
1 star 2 stars 3 stars 4 stars 5 stars
comments

Danse Macabre Tab

   
Song   : Dance Marcabre
Band   : Wintersleep
Album  : Wintersleep (2005)
Tuning : EGDGBE

Tabbed by Joey Taylor
email : joey_taylor23@hotmail.com


For this song you have to tune your "A" string to "G" so you can form
the 1 finger power chords on the A D G and B strings. When playing
the main riff using a down, up strumming pattern quickly. adding reverb
or a little delay will add fullness to the song.


Main Riff:

    d u d u d u d u
e ------------------------------------------------------|
B ------------------------------------------------------|
G --3-3-3-3-3-3-3-3--0-0-0-0-0-0-0--0/5-5-5-5-5-5-5-----|
D --3-3-3-3-3-3-3-3--0-0-0-0-0-0-0--0/5-5-5-5-5-5-5-----|
G --3-3-3-3-3-3-3-3--0-0-0-0-0-0-0--0/5-5-5-5-5-5-5-----|
E ------------------------------------------------------|


e ---------------------------------------------------------------------|
B ---------------------------------------------------------------------|
G --8-8-8-8-8-8-8--8-8-8-8-8-8-8--8-8-8-8-8-8-8--8-8-8-8-8-8-8---------|
D --8-8-8-8-8-8-8--8-8-8-8-8-8-8--8-8-8-8-8-8-8--8-8-8-8-8-8-8---------|
G --8-8-8-8-8-8-8--8-8-8-8-8-8-8--8-8-8-8-8-8-8--8-8-8-8-8-8-8---------|
E ---------------------------------------------------------------------|

[ Tab from: http://www.guitartabs.cc/tabs/w/wintersleep/danse_macabre_tab.html ]
e --------------------------------------------------------------|
B --------------------------------------------------------------|
G --5-5-5-5-5-5-5-5--8-8-8-8-8-8-8--3-3-3-3-3-3-3-3-------------|
D --5-5-5-5-5-5-5-5--8-8-8-8-8-8-8--3-3-3-3-3-3-3-3-------------|
G --5-5-5-5-5-5-5-5--8-8-8-8-8-8-8--3-3-3-3-3-3-3-3-------------|
E --------------------------------------------------------------|


e --------------------------------------------------------------|
B ------------------------------------------------*-*-*-*-*-*-*-|
G --0-0-0-0-0-0-0--0-0-0-0-0-0-0--0-0-0-0-0-0-0-|-0-0-0-0-0-0-0-|
D --0-0-0-0-0-0-0--0-0-0-0-0-0-0--0-0-0-0-0-0-0-|-0-0-0-0-0-0-0-|
G --0-0-0-0-0-0-0--0-0-0-0-0-0-0--0-0-0-0-0-0-0-|-0-0-0-0-0-0-0-|
E --------------------------------------------------------------|
                                                  Repeat 4 times
                                        * do not play forth time

Fill 1:

E = 11th fret
                           repeat 4 times
e ---------------------------------------|
B ----------8-8-8-8----------E-E-E-E-----|
G --8-8-8-8-8-8-8-8--8-8-8-8-8-8-8-8-----|
D --8-8-8-8-8-8-8-8--8-8-8-8-8-8-8-8-----|
G --8-8-8-8-8-8-8-8--8-8-8-8-8-8-8-8-----|
E ---------------------------------------|


Song structure :

Main riff 4 times (palm muted)

Interlude

main riff plam muted

main riff not palm muted 2 times


it then slows down where you can add little fills and make crazy noises
(this part of the song is not included in the video)


fill 2:
eb --------------7^----------------------------|
B  --------------------------------------------|
G  ------(5)^----------------------------------|
D  --------------------(5)^--------------------|


^ = harmonic
(5)= tremelo down 1/2 step
Comments