Wilt - Take Me Home Chords & Tabs

 

Take Me Home Chords & Tabs

Wilt Chords & Tabs

Version: 1 Type: Tab 0 ratings
1 star 2 stars 3 stars 4 stars 5 stars
comments

Take Me Home Tab

   
ARTIST: Wilt
SONG  : Take me home
TABBER: Donal Fenwick

This tab isnt absolutly perfect but ive layed down the basics of how to play the song

Intro
e----------------|
B----------------|
G----------------|
D----------------|
A----------------|
E-5h7-5h7-7-7-7--|

e---------------------|
B----2----------------|
G------4--------------|
D--------4------------|
A----------2----------|
E---------------------|

PRE VERSE
(its just the guitar on its own and then the drums come in)
e----------------|
B----------------|
G----------------|
D----------------|
A----------------|
E-5h7-5h7-7-7-7--|


VERSE
(Let the B chord ring out and about half way through whare
he sings the word "believe" it changes to the G
also im not shure of the end of the verse whare he
sings but i dont think so maby try sliding up on
the low E to about the 16th fret or somthing)

B   G


CHORUS
  D              B
e----------------------------------|
B----------------------------------|
G-77777777777777-4-4-4-4-4-4-4-4-4-|
D-77777777777777-4-4-4-4-4-4-4-4-4-|
A-55555555555555-0h2-0h2-0h2-2-2-2-|
E----------------------------------|

NOTE
(In the chorus after the bridge whare he sings please
in the middle  he holds the D and B chords for twice as
long as normal while the bass plays an accending riff
under this)

[ Tab from: http://www.guitartabs.cc/tabs/w/wilt/take_me_home_tab.html ]
BRIDGE
---------------------|
----2----------------|
--4---4--------------|x2 and then a final chorus
--4-----4------------|
--2------------------|
---------------------|


OUTRO
--------------------|
--------------------|
--9/11-11/9-9-9-----|
--x/x--x-/x-x-x-----|
--7/9--9-/7-7-7-----|
--------------------|
and end on A

LYRICS
---------------------------------------------------

VERSE:
Did i take you through the ground, sought all this so
nothing ventured nothing found, and i cant give you more
for all the diffrance that it makes, what all this for
and im the main man of the grave,and i cant make you
believe that theres somthing more to life, but i dont think so

gone detecting all you can, you will have to
valid reasons crooked plans, that affect you more
get the last plane if you can, get outta this place
and nothing matters when your mad, and i cant make you
believe that theres somthing more to life than banging up inside
maby you should know

( chicka chicka chicka chicka )

CHORUS:
Now.............. Take me home...........

VERSE:
did you make it back in time, whatever that means
i am locked up for awhile,(???????)
but the paitients treat me well, im getting better
they just told me when i leave, when ill maby
believe that theres somthing more to life than banging up inside
maby you should know

( chicka chicka chicka chicka )

CHORUS:
Now.............. Take me home...........
Comments