Wilt - Distortion Chords & Tabs

 

Distortion Chords & Tabs

Wilt Chords & Tabs

Version: 2 Type: Tab 0 ratings
1 star 2 stars 3 stars 4 stars 5 stars
comments

Distortion Tab

   
Author/Artist: wilt
Title: distortion

Intro:

-5--------8--------3---------------
-5--------8--------3---------------
-5--------9--------4---------------
-7-x8----10-x8-----5-x16-----------      X1
-7-------10--------5---------------
-5--------8--------3---------------
 Am       C        G
                                                                             
VERSES:
[ Tab from: http://www.guitartabs.cc/tabs/w/wilt/distortion_tab_ver_2.html ]
-----------------------------------
-----------------------------------
-----------5----7------------------
-7----5----5----7------------------    
-7----5----3----5------------------
-5----3----------------------------
 Am5  G5   C5   D5                                                                      


CHORUS:
-----------------------------------
-----------------------------------
-----------------------------------
-7-----10-----5--------------------    
-7-----10-----5--------------------
-5------8-----3--------------------
 
BRIDGE:                                                                             
-----------------------------------
-----------------------------------
-----------------------------------
-5/7---4/5---9/10----10/12---------
-5/7---4/5---9/10----10/12---------
-3/5---2/3---7/8------8/10---------
Comments