Wilsons - Untitled Chords & Tabs

 

Untitled Chords & Tabs

Wilsons Chords & Tabs

Version: 1 Type: Tab 0 ratings
1 star 2 stars 3 stars 4 stars 5 stars
comments

Untitled Tab

   
normal tuning

this is my first submission of a tab so be nice

----------------------------------------------------------------------
			The Wilsons-Untitled    
----------------------------------------------------------------------

heres the intro which is also played in the bridge...in the chorus second guitar plays this riff while other guitar plays the main riff
e|------------------------------------------------------------------ |
B|------------------------------------------------------------------ |
G|-------------------------------------------------------------------|
D|-------------------------------------------------------------------|
A|----10---10--10--10--10--10--10------------------------------------|
E|--10--10--10--10---12--12--12--12----------------------------------|
[ Tab from: http://www.guitartabs.cc/tabs/w/wilsons/untitled_tab.html ]
and heres the verse which is played softly and slowly during the verse and more heavy adding distortion in the chorus...accent the first note in every triplet...in the final chorus play fast

e|1-1-1-1-1-1-1-1-8--8--8--8--8--8--8--8--8--|
B|3-3-3-3-3-3-3-3-10-10-10-10-10-10-10-10-10-|
G|-------------------------------------------|
D|-------------------------------------------|
A|-------------------------------------------|
E|-------------------------------------------|

e|6-6-6-6-6-6-6-6-10----10--------8-----8----|
B|8-8-8-8-8-8-8-8-12----12-------10----10----|
G|-------------------------------------------|
D|-------------------------------------------|
A|-------------------------------------------|
E|-------------------------------------------|



song progression

verse1
chorus
verse2
chorus
bridge
chorus



this songs gonna be pretty big just wait.....any comments or questions.......email me at spoonboy@graffiti.net
Comments