Wilson Pickett - Land Of 1000 Dances Chords & Tabs

 

Land Of 1000 Dances Chords & Tabs

Wilson Pickett Chords & Tabs

Version: 1 Type: Tab 0 ratings
1 star 2 stars 3 stars 4 stars 5 stars
comments

Land Of 1000 Dances Tab

  Land of a 1000 dances- Arranged by sean maloney Baloneey2@excite.com

e    ---------------------------------------------------------------|
      --------------------------------------------------------------|
      --------------------------------------------------------------|
      ---4--2--4--2--4----2--4--2--4--------------------------------|
      ----------------------------------7--4--7-----4--2--4---------|
 E    --------------------------------------------------------------|
[ Tab from: http://www.guitartabs.cc/tabs/w/wilson_pickett/land_of_1000_dances_tab.html ]
      --------------------------------------------------------------|
      --------------------------------------------------------------|
      --------------------------------------------------------------|
      --4--2--4--2------------4-4-0-0-2-2-3-3---4--4-----2--4--2----|
      ------------------------------------------------4-----------4-|
      --------------------------------------------------------------|

      -------------------------------------------------------------|
      -------------------------------------------------------------|
      -------------------------------------------------------------|
      --4--4-----2--4--2------4-4-0-0-2-2-3-3-4-!------------------|
      --------4-----------4----------------------------------------|
      -------------------------------------------------------------|

      Lyrics- Nah, nah, nah, nah, naaaaaaaaaaaaaa. Nah,nah,na naaaa
  nah,na,nah. na na nah. na nah na nah
Comments