Wilson Frank And The Caveliers - Last Kiss Chords & Tabs

 

Last Kiss Chords & Tabs

Wilson Frank And The Caveliers Chords & Tabs

Version: 1 Type: Bass Tab 0 ratings
1 star 2 stars 3 stars 4 stars 5 stars
comments

Last Kiss Bass Tab

Last Kiss (Frank Wilson and The Cavaliers)

Tab by Swift

To My Girlfriend Maureen

The song has some slight variations, but this version will get you by.

   (Tab 1)
  |    |    |    |    |    |    |    |    |    |     |    |    
G-|--------------------------------------------6-------------
D-|---------9--------------6------6-7-------------9----------
A-|----7---------7-6-4----------7---------7----------9----6-9
E-|----------------------------------------------------------
[ Tab from: http://www.guitartabs.cc/tabs/w/wilson_frank_and_the_caveliers/last_kiss_btab.html ]
   (Tab 2)
  |    |    |    |    |    |    |    |    |    |     |    |    | 
G-|--------------------------------------------6----------------
D-|---------9--------------6------6-7-------------9-------9-----
A-|-----7--------7-6-4----------7---------7----------9------7---
E-|-------------------------------------------------------------

Play List Order

Tab 1
Tab 1
Tab 2
Pause
Tab 1
Tab 1
Tab 1
Tab 2
Pause
Tab 1
Tab 2
Pause
Tab 1
Tab 1
Tab 1
Tab 1
Tab 2
Pause 
Tab 1
Tab 2
Pause
Tab 1 
Tab 1
Tab 2 

Comments