Willy Wonka - Pure Imagination If You Want To View Paradise Chords & Tabs

 

Pure Imagination If You Want To View Paradise Chords & Tabs

Willy Wonka Chords & Tabs

Version: 1 Type: Tab 0 ratings
1 star 2 stars 3 stars 4 stars 5 stars
comments

Pure Imagination If You Want To View Paradise Tab

Willy Wonka
Pure Imagination

intro & outro:
--18-17-18--
------------
------------
------------
------------
------------

------------------8h9p8h9p8h9p8----
------9-----9-------------------9--
----6-----6-----6------------------
--8-----8-----8--------------------
-----------------------------------
-----------------------------------
come with me and you'll be in a world of pure imagination

-------------------------------
------6-7-9-6------------------
----6---------8-6-5h6p5h6p5----
--8-------------------------6--
-------------------------------
-------------------------------
take a look and you'll see into your imagination

------------------8h9p8h9p8h9p8----
------9-----9-------------------9--
----6-----6-----6------------------
--8-----8-----8--------------------
-----------------------------------
-----------------------------------
we'll begin with a spin traveling in the world of my creation

--------------------8--
------6-7-9-6----------
----6---------8-6-5----
--8--------------------
-----------------------
-----------------------
what we'll see will defy explanation

--8h9p8h9p8-8------------------------------
--------------9-------------------------9--
----------------10-10h11p10h11p10----10----
----------------------------------11-------
-------------------------------------------
-------------------------------------------
if you want to view paradise simply look around and view it

--8h9p8h9p8-------8--
---------------12----
---------------------
------------10-------
---------------------
---------------------
anything you want to do it
[ Tab from: http://www.guitartabs.cc/tabs/w/willy_wonka/pure_imagination_if_you_want_to_view_paradise_tab.html ]
--6h8p6h8p6------------
-----------------------
--------------5-6-7-8--
------------8----------
-----------------------
-----------------------
want to change the world there's nothing to it

------------------8h9p8h9p8h9p8----
------9-----9-------------------9--
----6-----6-----6------------------
--8-----8-----8--------------------
-----------------------------------
-----------------------------------
there is no life i know to compare with pure imagination

--------------------8--------
------6-7-9-6----------------
----6---------8-6-5---5-5-6--
--8--------------------------
-----------------------------
-----------------------------
living there you'll be free if you truly wish to be

--8h9p8h9p8-8---------------------------
--------------9----------------------9--
----------------10h11p10h11p10----10----
-------------------------------11-------
----------------------------------------
----------------------------------------
if you want to view paradise simply look around and view it

--8h9p8h9p8-------8--
---------------12----
---------------------
------------10-------
---------------------
---------------------
anything you want to do it

--6h8p6h8p6------------
-----------------------
--------------5-6-7-8--
------------8----------
-----------------------
-----------------------
want to change the world there's nothing to it

------------------8h9p8h9p8h9p8----
------9-----9-------------------9--
----6-----6-----6------------------
--8-----8-----8--------------------
-----------------------------------
-----------------------------------
there is no life i know to compare with pure imagination

--------------------8--------
------6-7-9-6----------------
----6---------8-6-5---5-5-6--
--8--------------------------
-----------------------------
-----------------------------
living there you'll be free if you truly wish to be
Comments