Willie Nelson - On The Road Again Chords & Tabs

 

On The Road Again Chords & Tabs

Willie Nelson Chords & Tabs

Version: 1 Type: Bass Tab 0 ratings
1 star 2 stars 3 stars 4 stars 5 stars
comments

On The Road Again Bass Tab

   
				  On The Road Again

				    Willie Nelson


  E                                   Ab
G|-----------------------------------|-----------------------------------|
D|-----------------------------------|-----------------------------------|
A|---7-------7-------7-------7-------|---7-------7-------7-------7-------|
E|-------7-------7-------7-------7---|-------7-------7-------7-------7---|

  E                                   Ab
G|-----------------------------------|----------------------------------|
D|-----------------------------------|--6-------6-------6-------6-------|
A|---7-------7-------7-------7-------|------6-------6-------6-------6---|
E|-------7-------7-------7-------7---|----------------------------------|
  (road)

  A                           Bb        E
G|---------------------------|---------|-------------------|
D|---7-------7-------7-------|--9------|-------------------|
A|-------7-------7-------7---|-----9---|---7-------7-------|
E|---------------------------|---------|-------7-------7---|

  E                                   Ab
G|-----------------------------------|----------------------------------|
D|-----------------------------------|--6-------6-------6-------6-------|
A|---7-------7-------7-------7-------|------6-------6-------6-------6---|
E|-------7-------7-------7-------7---|----------------------------------|

  A                           Bb        E
G|---------------------------|---------|-------------------|
D|---7-------7-------7-------|--9------|-------------------|
A|-------7-------7-------7---|-----9---|---7-------7-------|
E|---------------------------|---------|-------7-------7---|

  A                                   E                   A
G|-----------------------------------|-------------------|-----------------------------------|
D|-----------------------------------|-------------------|-----------------------------------|
A|-------7-------7-------7-------7---|---7-------7-------|-------7-------7-------7-------7---|
E|---5-------5-------5-------5-------|-------7-------7---|---5-------5-------5-------5-------|

  E                   B                   E
G|-------------------|-------------------|-----------------------------------|
D|-------------------|-------------------|-----------------------------------|
A|-------7-------7---|-------9-------r---|---7-------7-------7-------7-------|
E|---7-------7-------|---7-------7-------|-------7-------7-------7-------7---|

  Ab                                 A                           Bb        E
G|----------------------------------|---------------------------|---------|-------------------|
D|--6-------6-------6-------6-------|---7-------7-------7-------|--9------|-------------------|
A|------6-------6-------6-------6---|-------7-------7-------7---|-----9---|---7-------7-------|
E|----------------------------------|---------------------------|---------|-------7-------7---|

  E                                   Ab
G|-----------------------------------|----------------------------------|
D|-----------------------------------|--6-------6-------6-------6-------|
A|---7-------7-------7-------7-------|------6-------6-------6-------6---|
E|-------7-------7-------7-------7---|----------------------------------|
[ Tab from: http://www.guitartabs.cc/tabs/w/willie_nelson/on_the_road_again_btab.html ]
  A                           Bb        E
G|---------------------------|---------|-------------------|
D|---7-------7-------7-------|--9------|-------------------|
A|-------7-------7-------7---|-----9---|---7-------7-------|
E|---------------------------|---------|-------7-------7---|

  E                                   Ab
G|-----------------------------------|-----------------------------------|
D|-----------------------------------|-----------------------------------|
A|---7-------7-------7-------7-------|---7-------7-------7-------7-------|
E|-------7-------7-------7-------7---|-------7-------7-------7-------7---|

  E                                   Ab
G|-----------------------------------|----------------------------------|
D|-----------------------------------|--6-------6-------6-------6-------|
A|---7-------7-------7-------7-------|------6-------6-------6-------6---|
E|-------7-------7-------7-------7---|----------------------------------|


  A                           Bb        E
G|---------------------------|---------|-------------------|
D|---7-------7-------7-------|--9------|-------------------|
A|-------7-------7-------7---|-----9---|---7-------7-------|
E|---------------------------|---------|-------7-------7---|

  E                                   Ab
G|-----------------------------------|----------------------------------|
D|-----------------------------------|--6-------6-------6-------6-------|
A|---7-------7-------7-------7-------|------6-------6-------6-------6---|
E|-------7-------7-------7-------7---|----------------------------------|

  A                           Bb        E
G|---------------------------|---------|-------------------|
D|---7-------7-------7-------|--9------|-------------------|
A|-------7-------7-------7---|-----9---|---7-------7-------|
E|---------------------------|---------|-------7-------7---|

  E                                   Ab
G|-----------------------------------|-----------------------------------|
D|-----------------------------------|-----------------------------------|
A|---7-------7-------7-------7-------|---7-------7-------7-------7-------|
E|-------7-------7-------7-------7---|-------7-------7-------7-------7---|

  E                                   Ab
G|-----------------------------------|----------------------------------|
D|-----------------------------------|--6-------6-------6-------6-------|
A|---7-------7-------7-------7-------|------6-------6-------6-------6---|
E|-------7-------7-------7-------7---|----------------------------------|


  A                           Bb        E
G|---------------------------|---------|-------------------|
D|---7-------7-------7-------|--9------|-------------------|
A|-------7-------7-------7---|-----9---|---7-------7-------|
E|---------------------------|---------|-------7-------7---|

  E                                   Ab
G|-----------------------------------|----------------------------------|
D|-----------------------------------|--6-------6-------6-------6-------|
A|---7-------7-------7-------7-------|------6-------6-------6-------6---|
E|-------7-------7-------7-------7---|----------------------------------|

  A                           Bb        E
G|---------------------------|---------|-------------------|
D|---7-------7-------7-------|--9------|-------------------|
A|-------7-------7-------7---|-----9---|---7-------7-------|
E|---------------------------|---------|-------7-------7---|


  E                                   E
G|-----------------------------------|--------------------------------------|
D|-----------------------------------|--------------------------------------|
A|---7-------7-------7-------7-------|---7-------7-------7-------7----------|
E|-------7-------7-------7-------7---|-------7-------7-------7--------------|
Comments