Williams Robbie - Something Stupid Chords & Tabs

 

Something Stupid Chords & Tabs

Williams Robbie Chords & Tabs

Version: 1 Type: Tab 0 ratings
1 star 2 stars 3 stars 4 stars 5 stars
comments

Something Stupid Tab

this are the full little guitar melodies that accompany the singing.
just follow the song and you'll know where to put them in.
other tabs have chords already, so I thought I'd put my part here.

best sound to go with it is a nylon string-ed, and rest strokes 
-the . below represent Robbie's and Nicole's singing-

intro
	  
-----7-10-10-8-7h8h7--------10-8-7-8---------------------------------------------
-/8-8----------------10--------------10-8-7h8h7--------7-8----------------------
------------------------------------------------7-7h9---------------------
---------------------------------------------------------------
---------------------------------------------------------------
---------------------------------------------------------------

---------7-10----8-7h8h7------------------------------------------------
-----7-8-----------------8----------------------------------------
-7-9---------------------------7----------------------------------
---------------------------------10-9--7----------------------------
-----------------------------------------10---.-------------------
---------------------------------------------------------------
_____________________________________________________________________

---------------------------------10---8-7-8-7----------------------------
--------------5-7-8--7-5-7---.------------------10-8-7---10p8p7-5-----------------
--------4-5-7----------------------------------------------------7---
----7--------------------------------------------------------------
---------------------------------------------------------------
---------------------------------------------------------------
---------------------------------------------------------------

						
---------------------------------------------- 7)-6-5-.---------5-
------------------------8-888-6--------------(8-----------5h7h5---5h7h5.-----
---9p7/5-4----------------------9-7-5---.----------------------------
-----------3------.------------------------------------------
-----------------------------------------------------------
-----------------------------------------------------------
[ Tab from: http://www.guitartabs.cc/tabs/w/williams_robbie/something_stupid_tab.html ]
---------------------------7-8-7-8-8-10p8p7-8-7-8p7----------------------------
-------------------------8-------------------------10-8-7-.----------
--------5------5-------------------------------------------------
--5-7-9--9-7-9------.-------------------------------------------------
---------------------------------------------------------------
---------------------------------------------------------------

---------------------------------------------------------------
------7-8p7-8--7-7--5-7-5---2----------------------------------------------
---7h9-----9----7------7--0-------.------9-7--7h9h7-5--.------------------------
---------------------------------------------------------------
---------------------------------------------------------------
---------------------------------------------------------------
_____________________________________________________________________
Solo
---------------3-5-7--3-7-5-----5-3-----3---------------------------------
---------3-5-7----------------7-------5---7---3-7-5---1-5-3--------------------
---2-4-5----------------------------------------------------------
---------------------------------------------------------------
---------------------------------------------------------------
---------------------------------------------------------------

--------8/10-8-7-8-7-8-8/10-8p7------------------------------------------------
------8-------------------------8--------------------------------
----/7----------------------------7-------------------------------
----------------------------------------------------------
---------------------------------------------------------------
---------------------------------------------------------------
_________________________________________________________
--------------/10-10---------------/7-8--10--10---------------------------------
-------------------8-8-8-----------/8-10-12--12----------------------------
.--2-------------------7-----------------------12-12-------------------
------5-5--.--------------------------------------------------------
---------------------------------------------------------------
---------------------------------------------------------------

---------------------------------------------------------------
-----------------------------8-8--7-5-4------------------------------
---------------5-7-5----------------------------------------------
---------5-7-9-------8---------------------------------------------
---5-7-9----------------------------------------------------------
---------------------------------------------------------------

send in your feedback - thanks :)





Comments