Williams Robbie - Something Stupid Like I Love You Chords & Tabs

 

Something Stupid Like I Love You Chords & Tabs

Williams Robbie Chords & Tabs

Version: 1 Type: Tab 0 ratings
1 star 2 stars 3 stars 4 stars 5 stars
comments

Something Stupid Like I Love You Tab

   
	intro
	e|-------7--8--10-8-7h8------10p8-7h8-----------------------------------------7-8h10-
	B|-8--8-----------------10------------10---8-7h8p7----8-----7h8--------7-8-10--------
	G|-------------------------------------------------7----7h9--------7-9---------------
	D|===================================================================================
	A|===================================================================================
	E|===================================================================================
[ Tab from: http://www.guitartabs.cc/tabs/w/williams_robbie/something_stupid_like_i_love_you_tab.html ]
	e|-10--7h8-------------------------------------------------------------------------
	B|---------10----------------------------------------------------------------------
	G|--------------9p7----------------------------------------------------------------
	D|==================10===9=--======================================================
	A|=========================10======================================================
	E|=================================================================================
					I know I stand in line, 
					until you think you have the time
					To spend an evening with me
					
					e|---------0h2h3--2h0p2--
					B|---0h1h3---------------
					G|-2---------------------
					D|=======================
					A|=======================
					E|=======================




I know I stand in line, until you think you have the time to spend an evening with me
And if we go someplace to dance, I know that there's a chance you won't be leaving with me

And afterwards we drop into a quiet little place
And have a drink or two
And then I go and spoil it all, by saying something stupid
Like: "I love you"

I can see it in your eyes, that you despise the same old lies
You heard the night before
And though it's just a line to you, for me it's true
It never seemed so right before

I practice every day to find some clever lines to say
To make the meaning come through
But then I think I'll wait until the evening gets late 
And I'm alone with you

The time is right your perfume fills my head, the stars get red
And oh the night's so blue
And then I go and spoil it all, by saying something stupid
Like: "I love you"
("I love you, I love you,...")

Comments