Williams Robbie - Kids Chords & Tabs

 

Kids Chords & Tabs

Williams Robbie Chords & Tabs

Version: 1 Type: Tab 0 ratings
1 star 2 stars 3 stars 4 stars 5 stars
comments

Kids Tab

   
#----------------------------------PLEASE NOTE---------------------------------#
#This file is the author's own work and represents their interpretation of the #
#song. You may only use this file for private study, scholarship, or research. #
#------------------------------------------------------------------------------#

SONG: kids
ARTIST: Robbie Williams, Kylie Minogue
TABBED BY: Andrew Watkins nofriends_66@hotmail.com


Not a bad song, im not really a fan of either Robbie or Kylie but this song
caught my attention, it has a nice and funky tune, very catchy song.
I've tabbed this because basically there's no decent tabs for it on the net
and i needed it for a thing i was doing in my band.
I haven't included timings so figure them out for yourself.


MAIN RIFF
E------------------------------|
B----------3-x-2-0-x-2p0--x-x--|(this is played through the
G----------4-x-2-0-x-2p0--x-x--| verse's and the rap bit at
D--0h2-x-x-5-x-----------------| the end)
A------------------------------|
E------------------------------|
[ Tab from: http://www.guitartabs.cc/tabs/w/williams_robbie/kids_tab.html ]
SECOND RIFF ("and we'll play by number...")
E--------------------|*-------------------|
B--7----5----9----9--|--7----5----9-------|(i don't think theres actually
G--7----6----9----9--|--7----6----9-------| a guitar part here but play
D--7----7----9----9--|--7----7----9----7--| this if you want)
A--5----7----7----7--|--5----7----7----7--|
E--------------------|-----------------5--|
			*last time only

CHORUS
|   E5   |   G5   |   D5   |  A5  B5  |   G5   |   F#5  |   C5   |  D5  B5  |

BRIDGE ("im gonna give it all of my lovin...")
E-------------------------|------------------------|
B--9-x-x-9-x-9-x-8--7-x-x-|-7-x-x-7-x-7-x-5-9-x-x--|(figure out the 
G--9-x-x-9-x-9-x-7--7-x-x-|-7-x-x-7-x-7-x-6-9-x-x--| timings for yourself)
D--9-x-x-9-x-9-x-5--7-x-x-|-7-x-x-7-x-7-x-7-9-x-x--|
A--7-x-x-7-x-7-x----5-x-x-|-5-x-x-5-x-5-x-7-7-x-x--|
E-------------------------|------------------------|

("come down from the ceiling...")
E----------|
B--9----5--|
G--9----6--|
D--9----7--|
A--7----7--|
E----------|

That should give you a basic idea of the song.

Andrew Watkins
nofriends_66@hotmail.com
Comments