Williams Robbie - Better Man Chords & Tabs

 

Better Man Chords & Tabs

Williams Robbie Chords & Tabs

Version: 1 Type: Bass Tab 0 ratings
1 star 2 stars 3 stars 4 stars 5 stars
comments

Better Man Bass Tab

   
here is the basic bass to better man robbie williams
[ Tab from: http://www.guitartabs.cc/tabs/w/williams_robbie/better_man_btab.html ]
main riff
G[--------------------------------------------
D[-----------------------------------------------
A[--------------------------------------5-5-555---------x2
E[------------------5--5---555--2-2-222---------0-0-000
send someone to love me  
G[----------------------------------------
D[--------22-2-222-------------------------
A[----------------------------------4/5-555
E[2-2-222----------5-5-555--2-2-222---------0
                                              to be a better man

im not to sure about this but it is how i play it.
 add some bits in between and listen to get the timing

/slide up

here the chords for guitar (A,F#m,D,E)  x2
                            (F#m,E,A,F#m,Bb,E)
------------------------------------------------------------
--let Kurt rest in peace.
Comments