Williams Mason - Classical Gas Chords & Tabs

 

Classical Gas Chords & Tabs

Williams Mason Chords & Tabs

Version: 1 Type: Tab 1 rating
1 star 2 stars 3 stars 4 stars 5 stars
comments

Classical Gas Tab

Classical Gas (guitar only)
By,Mason Williams
Tabbed by Leebop --Leebop99@hotmail.com

This is a different version of the song Classical Gas, it was recorded by Mason Williams in the late sixties, early seventies, and if you can find it, download it and learn to play it, because it has more guitar playing then the more common version out there.

I think I have tabbed it pretty close.
    
|-------------------------|--------------------------|
|-1--------1------0-------|-----0--------------------|
|------2--------0---------|---0-----2-0-------2------|
|-------------------------|-----------------2--------|
|-0-----------------------|---------------0----------|
|-------------3---------2-|-0------------------------|

|-------------------------|--------------------------|
|-----0h1---0h1-----0-----|-----0--------0-----------|
|---2-----2-------0-------|---0---2-0-0h2------2-----|
|-------------------------|------------------2-------|
|-0-----------------------|----------------0---------|
|---------------3-------2-|-0------------------------|

|-------------------0-----|--------------------------|
|-----0-----1-----3-----3-|-1--3---------1-----0-----|
|---0-----2-----0-----0---|--------------------------|  
|-------------------------|--------2-----------------|
|-------0-----2-----3-----|-0------------------------|
|-3-----------------------|--------------------------|

|-----------------------------------|---------------------------------|
|-0h1p0-1-----1---0-----------------|-0---------0---------------------|
|---------2---2---0-----0-----0-----|---2-0-2-------2-----2-----2-----|
|---------------------0-----0-----0-|-------------------2-----2-----2-|
|-0---------0---0-------------------|-----------------0-----0-----0---|
|-------------------3-----2-----0---|-0-------0---0-------------------|
 
|-----------------------------------|---------------------------------|
|-0h1p0-1-----1---0-----------------|-0---------0---------------------|
|---------2---2---0-----0-----0-----|---2-0-2-------2-----2-----2-----|
|---------------------0-----0-----0-|-------------------2-----2-----2-|
|-0---------0---0-------------------|-----------------0-----0-----0---|
|-------------------3-----2-----0---|-0-------0---0-------------------|

|-----------------------------------|---------------------------------|
|-0h1p0-1-----1---0-----------------|-0---------0---------------------|
|---------2---2---0-----0-----0-----|---2-0-2-------2-----2-----2-----|
|---------------------0-----0-----0-|-------------------2-----2-----2-|
|-0---------0---0-------------------|-----------------0-----0-----0---|
|-------------------3-----2-----0---|-0-------0---0-------------------|

|-----------------------------------|---------------------------------|
|-0h1p0-1-----1---0-----------------|-0---------0-----------0-----0-1-|
|---------2---2---0-----0-----0-----|---2-0-2-------2-----2-----0-----|
|---------------------0-----0-----0-|-------------------2-------------|
|-0---------0---0-------------------|-----------------0---------------|
|-------------------3-----2-----0---|-0-------0---0-----------3-------|

|-----------------0---------|---------------------|
|-----1-----3---------3-1-3-|---1-0---------------|
|---2-----0----0----0-------|-------2---0-2-2---0-|
|---------------------------|-2-----3-------------|
|-0-----2-----2---3-----0---|---3-2-0-----0-0-----|
|---------------------------|---------------------|

|-------------------------------|-0-----1-----2-----3-----|-4---5---7---|
|-------0-----0-1------1-----3--|---1-----1-----1-----3---|---0---0---0-|
|-----2-----0--------2-----0----|-----0-----2-----2-----0-|-------------|
|---2---------------------------|-------------0-----------|-------------|
|-0----------------0-----2------|-3-----0-----------2-----|-------------|
|---------3---------------------|-------------------------|-0-----------|

|-8-7-5-----5-------5-----5------|-8-7-5-----5-----------5--------|
|-------8---5----7-----7-----5---|-------8---5---7---8-----8------|
|-------5--------7-----7---------|---------------7---7---7-7-----5|
|--------------------------------|------------------------------5-|
|-----------------5----5-5----h7-|-----------------5---5---5-5h7--|
|-5-----5---5--------------------|-5-------5---5------------------|

|-8-7-5-----5--------8--5-------|-3-----3-----1-----1-----|-0-----0-----0-----0-|
|-------8-------7---------7-----|-3-----5-----1-----3-----|-3-----3-----3-----3-|
|---------------7---------7-----|-------------------------|---------------------|
|----------------------------0--|-------------------------|---------------------|
|---------------5-5-5---5-------|-----5---3-3-----3---1-0-|----0-----0-----0----|
|-5-----5---5-5-----------------|---3-----------1---------|---------------------|
[ Tab from: http://www.guitartabs.cc/tabs/w/williams_mason/classical_gas_tab.html ]
|-------------0------------|---------------------------------|
|----------3-----3-----3---|-0h1p0-1-------1-3----1----0-----|
|-------2-----------2----2-|---------2-----------------------|
|----3----------------3----|-------------2-------2----2----2-|
|-0------------------0-----|-0---------0-------0----0----0---|
|--------------------------|---------------------------------|

|--------------------------------|--------------------------------|
|-0h1p0-1-------1-0--------------|-0h1p0-1---------0----1----3----|
|---------2------------2----0----|---------2-----2----------------|
|-------------2-------2----2---2-|-------------2-------2----2-----|
|-0---------0-------0----0----0--|-0---------0-------0----0----0--|
|--------------------------------|--------------------------------|

|---------------------------------|-0---0-------------------1-0-----|
|-5-3-5-3-1-3-1-0-1---------0-1-0-|---3---1---0-1-------3-------3-1-|
|-------------------4-2-4-2-------|---------------0---0-------------|
|---------------------------------|---------------------------------|
|-0-----0-----0-----0-----0-------|-3-------3-------2---2---2-------|
|---------------------------------|---------------------------------|

|-0---0-------------------1-0-----|-0---0-------------------1-0-----|
|---3---1---0-1-------3-------3-1-|---3---1---0-1-------3-------3-1-|
|---------------0---0-------------|---------------0---0-------------|
|---------------------------------|---------------------------------|
|-0-------0-----------------------|-3-------3-------2---2---2-------|
|-----------------3---3---3-------|---------------------------------|

|-0---0---------------------------|---------------------------------|
|---3---1---0-1-------------------|-0---------0---------0---1---3---|
|---------------0-----0-----0-----|---2-0-2-------2-2-----0---2---0-|
|-------------------0-----0-----0-|-------------------2-------------|
|-0-------0-----------------------|-----------------0-------0---2---|
|-----------------3-----2-----0---|-0-------0---0-------3-----------|
                                
|-0---1---2---3---4---5---7---|-8-7-5-----5-------5-----5------|
|---1---1---1---3---0---0---0-|-5-5-5-8-------7-----7-----5----|
|-----------------------------|---------------7----------------|
|---------0-------------------|------------------------------5-|
|-3---0-------2---------------|---------------5-5-5-5-5-5-5h7--|
|-----------------0-----------|-5-----5---5--------------------|

|-8-7-5-----5-----------5---------|-8-7-5-----5---------8---5-------|
|-5-5-5-8-------7---8-----8-------|-5-5-5-8-------7------------7----|
|-------5---5---7---7---7-7-----5-|-------5---5---7-----7---7--7----|
|------------------------------5--|-------------------------------0-|
|-----------------5---5-----5h7---|-----------------5-5-5-5-5-5-----|
|-5-------5---5-------------------|-5-------5---5-------------------|

|-3-----3-----1-----1----|-0---0---0---0-----0-------|
|-3-----5-----1-----3----|-3---3---3---3----3-3------|
|------------------------|-----------------2---2-----|
|------------------------|----------------------3~~~-|
|-----5---3-3-----3--1-0-|---0---0---0---0-----------|
|---3-----------1--------|---------------------------|

|-----------------------------------|---------------------------------|
|-0h1p0-1-----1---0-----------------|-0---------0---------------------|
|---------2---2---0-----0-----0-----|---2-0-2-------2-----2-----2-----|
|---------------------0-----0-----0-|-------------------2-----2-----2-|
|-0---------0---0-------------------|-----------------0-----0-----0---|
|-------------------3-----2-----0---|-0-------0---0-------------------|

|-----------------------------------|---------------------------------|
|-0h1p0-1-----1---0-----------------|-0---------0-----------0-----0-1-|
|---------2---2---0-----0-----0-----|---2-0-2-------2-----2-----0-----|
|---------------------0-----0-----0-|-------------------2-------------|
|-0---------0---0-------------------|-----------------0---------------|
|-------------------3-----2-----0---|-0-------0---0-----------3-------|

|---------------0---------|----------------------|
|-----1-----3-------3-1-3-|---1-0----------------|
|---2-----0-------0-------|--------2---0-2-2---0-|
|-------------------------|-2------3-------------|
|-0-----2-----2-3-----0---|---3-2--0-----0-0-----|
|-------------------------|----------------------|

|-----------------0---1---2---3---4---5---7-5-|-----3-----3-----1-----1-----0-|
|-----0---1---3-----1---1---1---3---0---0-----|-----3-----5-----1-----3-----3-|
|-2-----0---2---0-----------------------------|-------------------------------|
|---2---------------------0-------------------|---------------------------2---|
|-0-------0---2---3---0-------2---------------|---5---3-3-----3---1-1---0-----|
|-----3---------------------------0-----------|-3-----------1-----------------|
                                
|---------------0--------------------------0-----------------------------|
|------------3-----3-------3------------3-----3-----------3--------2p0h2-|
|---------2----------2---2---2-------2-----------2-----2-----2-----------|
|------3--------------------------0--------------------------------------|
|-1-0------------------0-------2--------------------2----------0---0-----|
|------------------------------------------------------------------------|
Comments