Williams John - Star Wars- Anakin's Love Song Chords & Tabs

 

Star Wars- Anakin's Love Song Chords & Tabs

Williams John Chords & Tabs

Version: 1 Type: Tab 2 ratings
1 star 2 stars 3 stars 4 stars 5 stars
comments

Star Wars- Anakin's Love Song Tab

This is my first guitar tab, but I am pretty sure I got everything right.  This is the song that
plays whenever Anakin and Padme are together.

E------------------------------------------
B------------1-----------------------------
G----3----0----3-2-3--0--3-2-0-2-----0-----
D-0-------------------------------3-----3-0
A------------------------------------------
E------------------------------------------
[ Tab from: http://www.guitartabs.cc/tabs/w/williams_john/star_wars_anakins_love_song_tab.html ]
E-----------------------------------
B------------------1-----3--1-------
G----3----0--0-2-3----2---------2---
D-0---------------------------------
A-----------------------------------
E-----------------------------------

E----1----------------------1--------------
B-3------4-3-1--1-3-4-4--1------4-3-1-0-3--
G-----------------------------------------0
D------------------------------------------
A------------------------------------------
E------------------------------------------

E---------------------------------------------------
B---------------------------------------------------
G-0---3----1--0-------0-1-1------3----1--0--3--2-0-1
D----------------3--3--------3----------------------
A---------------------------------------------------
E---------------------------------------------------

Then you repeat from the beginning
Comments