Williams John - Harry Potter Theme Chords & Tabs

 

Harry Potter Theme Chords & Tabs

Williams John Chords & Tabs

Version: 1 Type: Tab 2 ratings
1 star 2 stars 3 stars 4 stars 5 stars
comments

Harry Potter Theme Tab

   
Harry Potter Theme for Guitar by Çagri Akyurt
Composed by John Williams
Questions?E-Mail me: cagriakyurt@fuckhotmail.com
                                        
Standard Tuning - E A D G B E


|--------------------------|---0---0---0---0---0---0-------0--|
|--------------------------|---------------------------4------|
|--------------------------|----------------------------------|
|--------------------------|----------------------------------|
|--------------------------|---3---3---3---3---3---3---2---3--|
|-------------0------------|---5---5---5---5---5---5---4---5--|

[ Tab from: http://www.guitartabs.cc/tabs/w/williams_john/harry_potter_theme_tab.html ]
|-----1-----0-----------0-----5----|----------------------------------|
|-----2-----1-----4-----1----------|-----3-----3-----2-----3----------|
|-----------5-----4-----------5----|-----------------1----------------|
|----------------------------------|----------------------------------|
|----------------------------------|-----0-----0-----------0----------|
|----------------------------------|-----1-----1-----0-----1-----1----|


|---------------------------------|---0---0---0---0---0---0-------0--|
|--------------------1------4-----|---------------------------4------|
|-------------2-------------------|----------------------------------|
|---------------------------------|----------------------------------|
|---------------------------------|---3---3---3---3---3---3---2---3--|
|------0--------------------------|---5---5---5---5---5---5---4---5--|


|-----3-----1-----0-----1----------|-----1-----0-----------0----------|
|-----4-----2-----1-----3----------|-----2-----1-----4-----1----------|
|-----------------------------3----|-----------------4-----------2----|
|----------------------------------|----------------------------------|
|----------------------------------|----------------------------------|
|----------------------------------|----------------------------------|


|-------------------4--------|
|---------1---------5--------|
|---------1------------------|
|---------3------------------|
|----------------------------|
|----------------------------|


Comments