William Chatterton Dix - What Child Is This Chords & Tabs

 

What Child Is This Chords & Tabs

William Chatterton Dix Chords & Tabs

Version: 1 Type: Tab 0 ratings
1 star 2 stars 3 stars 4 stars 5 stars
comments

What Child Is This Tab

This is my first tab. It's a really nice song, and I dont think there's any mistakes.
Enjoy!!!
If you have any comments, write me at Kiwimaker@hotmail.com


Gently
 ~-------------------2-----------------------------------------------
T~-------1---3---5-------5---3---0-----------0---1-------------------
A~---2-------------------------------0---2-----------2---2---0---2---
B~-------------------------------------------------------------------
 ~-------0-------3-----------3-------------------0-------------------
 ~-----------------------------------0-------------------1-----------

 ~-----------------------------------------------2--------------------0-----------------------
T~---0---------------1------------3-----5-----------5-----3-----------------------------0-----
A~-------1-------2----------2--------0--------2--------0--------0-----------0--------2--------
B~-----------2-----------2-----2-----------2-----------------0--------------------2-----------
 ~-----------2-------0------------2-----3--------------------------------------2-----------2--
 ~---0----------------------------------------------------3--------3-----2--0-----------------

 ~-------------------------------------------------------------
T~---1--------0------------------------------------------------
A~---------2-----2-----1-----------1-----2--------2---------2--
B~------2-----------2--------2--4--------------2---------2--2--
 ~---0--------------------2-----------2-----3---------3--------
 ~---------------------0-----------------5------------------5--
[ Tab from: http://www.guitartabs.cc/tabs/w/william_chatterton_dix/what_child_is_this_tab.html ]
 ~---3-----3-----3-----3-----2-----0-----------------------------------------
T~---3-----3-----3-----3-----3-----3-----3-----3-----0-----------------0-----
A~------0-----0-----0-----0-----0-----0--0-----0-----0-----0-----0--2--0-----
B~------------------------------------------0-----0-----0--2-----2--4--------
 ~---3-----------------3-----------------2--------------------2-----------2--
 ~---------------------------------------------------------0-----------------

 ~------------------------------------------------------------------------------
T~---1-----1-----------------------------0--------------------------------------
A~---2-----2-----2-----2--------0--2-----------------0-----0--------------------
B~------2-----2-----2--------2--------0--------2-----------------2--------------
 ~---0--------------------3-----------------2-----2-----2-----2-----------0--2--
 ~---------------------3-----------2-----0-----------------------0--2--3--------


 ~---3-----3-----3-----3-----2-----0-----------------------------------------
T~---3-----3-----3-----3-----3-----3-----3-----3-----0-----------------0-----
A~------0-----0-----0-----0-----0-----0--0-----0-----0-----0-----0--2--0-----
B~------------------------------------------0-----0-----0--2-----2--4--------
 ~---3-----------------3-----------------2--------------------2-----------2--
 ~---------------------------------------------------------0-----------------

 ~------------------------------------------------------0--3---5---
T~---1-----0-----------------------------------------3---------5---
A~---2-----2-----2-----1-----------1--2--------2--5------------5---
B~------2-----------2--2-----2--4-----------2------------------9---
 ~---0--------0-----------2--------------3--------0------------0---
 ~---------------------0--------------5----------------------------

And thats it! I hope you like it. It takes a little getting used to, but you'll get it. 
Comments