William C Dix - What Child Is This Chords & Tabs

 

What Child Is This Chords & Tabs

William C Dix Chords & Tabs

Version: 1 Type: Tab 0 ratings
1 star 2 stars 3 stars 4 stars 5 stars
comments

What Child Is This Tab

 p= pull off

 (6/8)                           Verse:
_____________________________________________________________________________
e:--------------------|-2p0---------------|----------------|----------------|
B:--------1---3---5---|-------3---0-------|---0--1---------|-------0--------|
G:--2-----------------|---------------0---|-2-------2-----2|-1-2-------1----|
D:--------------------|-------------------|---------------3|-------2-----2--|
A:--------0---2---3---|-------------------|------0---------|----------------|
E:--------------------|-------3-------3---|----------------|-------------0--|
_____________________________________________________________________________

   What Child is this,  Who, laid to rest,  On   Ma-ry's lap  is  sleep-ing?
_____________________________________________________________________________
e:------------------|2p0----------------|----------------|------------0---0--|
B:-0----1--3-----5--|-----3----0--------|----0---1--0----|------------1---1--|
G:------------------|----------------0--|--2----------2--|--1------1--2---2--|
D:------------------|-------------------|----------------|------4-----2---2--|
A:------0--2-----3--|-------------------|--------0-------|------------0---0--|
E:------------------|-----3----------3--|----------------|--0----------------|
_____________________________________________________________________________

  Whom an-gels greet with an-thems sweet,While shep-herds watch are keep-ing?

[ Tab from: http://www.guitartabs.cc/tabs/w/william_c_dix/what_child_is_this_tab.html ]
                                   Chorus:
__________________________________________________________________________
e:-3-----3--2p0-----------|---------------------|------------------------|
B:-1-----1--------3-----0-|--------0---1--------|-----------0------------|
G:-0-----0----------------|-0----2----------2---|-2----1-2------1--------|
D:-2-----2----------------|---------------------|-3---------2----------2-|
A:-3-----3----------------|------------0--------|------------------------|
E:----------------3-------|-3-------------------|--------------------0---|
__________________________________________________________________________

  This, this is Christ the King, Whom shep-herds guard and  an-gels sing: 
_____________________________________________________________________
e:--3------3--2p0---------------|------------------|-------0-----0-||
B:--1------1--------3----0------|---0--1--0--------|-------1-----1-||
G:--0------0-----------------0--|-2----------2---1-|---1---2-----2-||
D:--2------2--------------------|------------------|-4-----2-----2-||
A:--3------3--------------------|------0-----------|-------0-----0-||
E:------------------3--------3--|----------------0-|---------------||
_____________________________________________________________________

  Haste, haste to bring Him laud  The Babe, the Son   of   Ma - ry.


                                 Verse 2:
       Why lays He in such mean es-tate, Where ox and ass are feeding?
     Good Chris-tian, fear for sinners here The silent word is plead-ing.

                                 (Chorus)

                                 Verse 3:
     So bring Him in-cense,gold and myrrh Come rich and poor to own Him;
    The King of kings sal-va-tion brings Let loving hearts en-throne Him.

                                 (Chorus)


                                                      Please rate or comment
                                                      on my tab. Thanks!
Comments