Will Smith - Nod Ya Head Chords & Tabs

 

Nod Ya Head Chords & Tabs

Will Smith Chords & Tabs

Version: 3 Type: Tab 0 ratings
1 star 2 stars 3 stars 4 stars 5 stars
comments

Nod Ya Head Tab

Nod ya head (Black suits comin')
Will Smith
Men in Black 2

Main riff:

E-------------------------------------------------------------------|
B-------------------------------------------------------------------|
G-------------------------------------------------------------------|
D-------------------------------------------------------------------|
A---3h4-3-1--------------3h4-3-1------------------------------------|
E-----------3-1-1-1-3------------3-1-1-1-3--------------------------|

[ Tab from: http://www.guitartabs.cc/tabs/w/will_smith/nod_ya_head_tab_ver_3.html ]
then it goes to...

E-------------------------------------------------------------------|
B-------------------------------------------------------------------|
G-------------------------------------------------------------------|
D-------------------------------------------------------------------|
A---8h9-8-6------------8h9-8-6--------------------------------------|
E-----------8-6-6-6-8----------8-6-6-6-8----------------------------|


back to beginning

questions or comments: email me at regularguy03@aol.com
Comments