Will Smith - Just The Two Of Us Chords & Tabs

 

Just The Two Of Us Chords & Tabs

Will Smith Chords & Tabs

Version: 1 Type: Bass Tab 0 ratings
1 star 2 stars 3 stars 4 stars 5 stars
comments

Just The Two Of Us Bass Tab

  BTAB: Just The Two Of Us
Artist: Will Smith
 Album: Big Willie Styles
Author: Rattman (jratt0@hotmail.com)

**Padrino's Bass Tab Exclusive!**
[ Tab from: http://www.guitartabs.cc/tabs/w/will_smith/just_the_two_of_us_btab.html ]
Intro/Chorus:
G---*6-*6---*5-*5------------*6-*6---*5-*5----------------------------
D-----------------3-1-------------------------------------------------
A-4-------3-----------4-3--4-------3----------3-----------------------
E------------------------------------------1~-------------------------
 *=Pluck

Verse:
G---------------
D-------1-3~-1~-
A-4~-3~---------
E---------------


Taken from Padrino's Bass Tab Archive: http://members.xoom.com/jszalma/
Comments