Will Haven - Miguel Encontro La Fe Otra Vez Chords & Tabs

 

Miguel Encontro La Fe Otra Vez Chords & Tabs

Will Haven Chords & Tabs

Version: 1 Type: Tab 0 ratings
1 star 2 stars 3 stars 4 stars 5 stars
comments

Miguel Encontro La Fe Otra Vez Tab

   
-------------------------------------------------------------------------------
	        Miguel Encontro La Fe Otra Vez - Will Haven
-------------------------------------------------------------------------------
Tabbed by: Sick Steve


Tuning: Drop B

Riff 1

e|-----------------------------------------------------------------------------|
B|-----------------------------------------------------------------------------|
g|-----------------------------------------------------------------------------|
d|-----------------------------------------------------------------------------|
a|-----------------------------------------------------------------------------|
e|111--111--111--111-0---------------------------------------------------------|

Riff 2

e|-----------------------------------------------------------------------------|
B|-----------------------------------------------------------------------------|
g|-----------------------------------------------------------------------------|
d|-----------------------------------------------------------------------------|
a|-----------------------------------------------------------------------------|
e|666-0------------------------------------------------------------------------|

Riff 3 (These are not 0 1's, but 10's)

e|-----------------------------------------------------------------------------|
B|-----------------------------------------------------------------------------|
g|-----------------------------------------------------------------------------|
d|-----------------------------------------------------------------------------|
a|-----------------------------------------------------------------------------|
e|10101010-0-------------------------------------------------------------------|

Riff 4

e|---------------------------------------------------------------------------|
B|---------------------------------------------------------------------------|
g|---------------------------------------------------------------------------|
d|---------------------------------------------------------------------------|
a|---------------------------------------------------------------------------|
e|222222---------------------------------------------------------------------|

Riff 5

e|-----------------------------------------------------------------------------|
B|-----------------------------------------------------------------------------|
g|-----------------------------------------------------------------------------|
d|-----------------------------------------------------------------------------|
a|-----------------------------------------------------------------------------|
e|2102^------------------------------------------------------------------------|

Riff 6 (Guitar 1)
[ Tab from: http://www.guitartabs.cc/tabs/w/will_haven/miguel_encontro_la_fe_otra_vez_tab.html ]
e|-----------------------------------------------------------------------------|
B|-----------------------------------------------------------------------------|
g|-----------------------------------------------------------------------------|
d|-----------------------------------------------------------------------------|
a|-----------------------------------------------------------------------------|
e|11--11--11--11--11--11--11-11------------------------------------------------|

Riff 6 (Guitar 2)

e|-----------------------------------------------------------------------------|
B|-----------------------------------------------------------------------------|
g|9-------------------13-----8------------------11-----------------------------|
d|-----------------------------------------------------------------------------|
a|7-------------------11-----6------------------9------------------------------|
e|-----------------------------------------------------------------------------|

Riff 7

e|------------------0--------------------------------------------------------|
B|------------------0--------------------------------------------------------|
g|------------------0--------------------------------------------------------|
d|---------------------------------------------------------------------------|
a|---------------------------------------------------------------------------|
e|6---6---7---3----------1---------------------------------------------------|

Riff 8 ( Just like the first riff but let the open B ring out)

e|-----------------------------------------------------------------------------|
B|-----------------------------------------------------------------------------|
g|-----------------------------------------------------------------------------|
d|-----------------------------------------------------------------------------|
a|-----------------------------------------------------------------------------|
e|111--111--111--111-0---------------------------------------------------------|

Riff 9 (All these notes are natural harmonics at the 3rd fret)

e|-----------------------------------------------------------------------------|
B|-----------------------------------------------------------------------------|
g|-----------------------------------------------------------------------------|
d|-----------------------------------------------------------------------------|
a|333-333-333-333--------------------------------------------------------------|
e|333-333-333-333--------------------------------------------------------------|

e|-----------------------------------------------------------------------------|
B|-----------------------------------------------------------------------------|
g|-----------------------------------------------------------------------------|
d|-----------------------------------------------------------------------------|
a|-----------------------------------------------------------------------------|
e|00--00--00--00--00--00--00--00-----------------------------------------------|

I hope this is close enough.

I don't see too much Will Haven tab so I thought I would tab some myself.

| /  slide up
| \  slide down
| h  hammer-on
| p  pull-off
| ~  vibrato
| +  harmonic
| x  Mute note
===============================================================================
Comments