Wildhearts - Vanilla Radio Chords & Tabs

 

Vanilla Radio Chords & Tabs

Wildhearts Chords & Tabs

Version: 2 Type: Tab 0 ratings
1 star 2 stars 3 stars 4 stars 5 stars
comments

Vanilla Radio Tab

The Wildhearts - Vanilla Radio

This is their new single and it kicks serious arse so here it is.
Enjoy!

Main Riff
e|--------------------------------------------------|
B|--------------------------------------------------|
G|-xx-1111-xx-1010-xx-9-8-x-6/8-8-------------------|
D|-xx-1111-xx-1010-xx-9-8-x-6/8-8-------------------|
A|-xx--9-9-xx--8-8-xx-7-6-x-4/6-6-------------------|
E|-xx------xx------xx-----x-------------------------|

Main Riff Variation
e|--------------------------------------------------|
B|--------------------------------------------------|
G|-xx-1111-xx-1010-xx-9/----------------------------|
D|-xx-1111-xx-1010-xx-9/----------------------------|
A|-xx--9-9-xx--8-8-xx-7/----------------------------|
E|-xx------xx------xx-------------------------------|

Pre/Mid-Verse Riff - w/Wah-Wah
e|--------------------------------------------------|
B|--------------------------------------------------|
G|-8-10--8--8---------------------------------------|
D|-x--x--x--x---------------------------------------|
A|-6--8--6--6---------------------------------------|
E|--------------------------------------------------|

Verse
e|--------------------------------------------------|
B|--------------------------------------------------|
G|-888-6/8-888-888-6/8-888-888-6/8-888--------------|
D|-888-6/8-888-888-6/8-888-888-6/8-888--6666666-----|
A|-666-4/6-666-666-4/6-666-666-4/6-666--6666666-----|
E|--------------------------------------4444444-----|
 PM ..     . .  ..     . .  ..     . .   .. ..
[ Tab from: http://www.guitartabs.cc/tabs/w/wildhearts/vanilla_radio_tab_ver_2.html ]
Verse (continued)
e|--------------------------------------------------|
B|--------------------------------------------------|
G|--------------------------------------------------|
D|-4444-3333----------------------------------------|
A|-4444-3333----------------------------------------|
E|-2222-1111----------------------------------------|

Pre-Chorus
e|--------------------------------------------------|
B|--------------------------------------------------|
G|-8888888888888888---------------------------------|
D|-8888888888888888-9999999999999999-44444444444----|
A|-6666666666666666-9999999999999999-44444444444----|
E|------------------7777777777777777-22222222222----|
Pre-Chorus (continued)
e|--------------------------------------------------|
B|--------------------------------------------------|
G|-3-3----------------------------------------------|
D|-3-3-66666666-4-3---------------------------------|
A|-1-1-66666666-4-3---------------------------------|
E|-----44444444-2-1---------------------------------|

Chorus
e|--------------------------------------------------|
B|--------------------------------------------------|
G|-88888888----------55555555-6666-7777-------------|
D|-88888888-66666666-55555555-6666-7777-------------|
A|-66666666-66666666-33333333-4444-5555-------------|
E|----------44444444--------------------------------|

End Main Riff
e|--------------------------------------------------|
B|--------------------------------------------------|
G|-xx-1111-xx-1010-xx-9-8---------------------------|
D|-xx-1111-xx-1010-xx-9-8---------------------------|
A|-xx--9-9-xx--8-8-xx-7-6---------------------------|
E|-xx------xx------xx-------------------------------|

Order:
Main Riff x3
Main Riff Variation x1
Pre/Mid-Verse Riff x8
Main Riff Variation x1
Verse x1
Pre/Mid-Verse Riff x2
Verse x1
Pre/Mid-Verse Riff x2
Pre-Chorus x1
Chorus x2
Main Riff Variation x1
Verse x1
Pre/Mid-Verse Riff x2
Verse x1
Pre/Mid-Verse Riff x2
Pre-Chorus x1
Chorus x2
Main Riff x3
Main Riff Variation x1
Pre/Mid Verse Riff x8
Pre-Chorus x1
Chorus x4
End Main Riff x1
Comments