Wild Cherry - Play That Funky Music Chords & Tabs

 

Play That Funky Music Chords & Tabs

Wild Cherry Chords & Tabs

Version: 3 Type: Tab 0 ratings
1 star 2 stars 3 stars 4 stars 5 stars
comments

Play That Funky Music Tab

Artist: Wild Cherry
Song: Play that funky music
Tabbed by skasolo
skasolo@hotmail.com

this is just a basic tab to get you going.

INTRO and VERSES:
e----------------------------
B----------------------------
G----------------------------
D-------2-0-2-------0^2------
A--------------0^2-----------
E--0-0-----------------------
[ Tab from: http://www.guitartabs.cc/tabs/w/wild_cherry/play_that_funky_music_tab_ver_3.html ]
pre- chorus
e--x--5--------------
B--x--5--------------  mute downstroke, 
G--x--5--------------  play upstoke
D--x--4--------------
A--x--5--------------
E--x-----------------

CHORUS:
e----------------------------
B----------------------------
G----------------------------
D-------5-3-5-------3^5------
A--------------3^5-----------
E--3-3-----------------------

end with
e-------------------------------------------
b-------------------------------------------
g-4--2-----2--------------------------------
d-------4-----4--3--2--0--2--4--2--0--------
a-------------------------------------2--0--
e-------------------------------------------

see ya
Comments