Wilco - Sunken Treasure Chords & Tabs

 

Sunken Treasure Chords & Tabs

Wilco Chords & Tabs

Version: 1 Type: Chords 0 ratings
1 star 2 stars 3 stars 4 stars 5 stars
comments

Sunken Treasure Chords

   
-------------------------------------------------------------------------------
			     Sunken Treasure - Wilco
-------------------------------------------------------------------------------
Tabbed by: Jwrussert
Email: Jwrussert@gmail.com

Basically just repeat:
[ Tab from: http://www.guitartabs.cc/tabs/w/wilco/sunken_treasure_crd.html ]
D F#m G
  
   D    F#m  G
e|-2----2----3---------------------------------------------------------|
B|-3----2----3---------------------------------------------------------|
G|-2----2----4---------------------------------------------------------|
D|-0----4----5---------------------------------------------------------|
A|-0----4----5---------------------------------------------------------|
E|-2----2----3---------------------------------------------------------|

You can play the standard chords but it doesn't sound nearly as good, so just use these
and it should sound great.
Comments