Wilco - Lonely One Chords & Tabs

 

Lonely One Chords & Tabs

Wilco Chords & Tabs

Version: 1 Type: Tab 0 ratings
1 star 2 stars 3 stars 4 stars 5 stars
comments

Lonely One Tab

-----------------------------------------------------------------------
			     The Lonely 1 - Wilco
-----------------------------------------------------------------------
Tabbed by: Jwrussert
Email: Jwrussert@gmail.com

Tuning: EADGBe
[ Tab from: http://www.guitartabs.cc/tabs/w/wilco/lonely_one_tab.html ]
e|---------------------------------|
B|----13-12----12-10----10-7---8---|
G|-12-------12-------11------7---9-|
D|-10-------12-------11------5-----|
A|----------14-------9-------------|
E|---------------------------------|

This may not be completely accurate but it sounds good.
Comments