Wilco - Jesus Etc Chords & Tabs

 

Jesus Etc Chords & Tabs

Wilco Chords & Tabs

Version: 3 Type: Chords 0 ratings
1 star 2 stars 3 stars 4 stars 5 stars
comments

Jesus Etc Chords

   
"Jesus Etc."
by Wilco
on Yankee Hotel Foxtrot
chart by JGardner

Use these chords for the verses:

   Dm   Am   Bb   F    Gm   C 
e|-1----0---------1----3------|
B|-3----1----3----1----3----5-|
G|-2----2----3----2----3----5-|
D|-0----2----3----3----5----5-|
A|------0----1----3----5----3-|
E|----------------1----3------|
    
Use these chords for the chorus:
[ Tab from: http://www.guitartabs.cc/tabs/w/wilco/jesus_etc_crd_ver_3.html ]
   F    C/E  Dm   A/C#  
e|---------------------|
B|-10---7----6----5----|
G|-10---8----7----6----|
D|-10---9----7----7----|
A|-8----6----5----4----|
E|---------------------|

Intro:

Dm Am

Verse (type 1):

Dm Am
Dm Bb
F Gm C
(last time only) Bb

Chorus:

F C/E Dm A/C# 
Bb F C

Verse (type 2):

Bb F Bb F C
(last time only) Bb
Comments