Wilco - Far Far Away Chords & Tabs

 

Far Far Away Chords & Tabs

Wilco Chords & Tabs

Version: 1 Type: Tab 0 ratings
1 star 2 stars 3 stars 4 stars 5 stars
comments

Far Far Away Tab

   
##################################################################################
# This file is the author's own work and represents their interpretation of the  #
# song. You may only use this file for private study, scholarship, or research.  #
##################################################################################

Far, Far Away- Wilco
Written by Jeff Tweedy
Album: Being There Disc 1
Tabbed by Matt Walters


Hey what’s up Wilco fans, here is another song to add to your repertoire.  
This is a great song of my personal favorite Wilco album.  This whole song is 
played ACOUSTICALLY!  Although I’m sure it can be played electric.  
The solo seemed a little off but I got most of it, I think the last part 
of it is played with 2 strings, but I think it sounds good like this.  
Good luck everyone, and if you like this band go to www.wilcoworld.net.   
Peace out.  Remember, I am a 15 year old kid and I do make mistakes.
If my mistakes NEED to be pointed out E-Mail me at Foofighterduck@hotmail.com.

[ Tab from: http://www.guitartabs.cc/tabs/w/wilco/far_far_away_tab.html ]
If your to lazy to learn the solo, play this over it:
G-Bm-Em-Bm (Bm-Bbm-Am)
Am-C
G-Em-C-Am
G-Em-C-G
Add more if need

SOLO:
E -------------------------------------------------------------------------------------|
B -------------------------------------------------------------------------------------|
G -------------------------------------------------------------------------------------|
D -------------------9------------------9---9------------------------------------------|
A ---2------0--2------9----5----2-----------10----9---2--5---2--1--0--------0---2------|
E ---------------------------------------------------------------------------------3---|


E -----------------------------------------------------------------------------|
B -----------------------------------------------------------------------------|
G -----------------------------------------------------------------------------|
D -----------5---7---9---5---10---7--9-------5---7---9---5---10---9---7----5---|
A-----5/7----------------------------------------------------------------------|
E------------------------------------------------------------------------------|




Hey I just wanted to let you know that another guys tab helped me out
But i just made adjustments and added the solo.  Have fun!



Comments