Wig Wam - Rock My Ride Chords & Tabs

 

Rock My Ride Chords & Tabs

Wig Wam Chords & Tabs

Version: 1 Type: Tab

Rock My Ride Tab

    PS:YOU MUST HAVE LISTENED TO THE SONG BEFORE YOU PLAY IT

                 R O C K  M Y  R I D E
                 ---------------------
                  ALBUM:WIGWAMANIA
WORDS AND MUSIC:TROND"TEENY"HOLTER


/ = slide down

intro:
E|-----------11-----------9-----------11---------|
B|-------11-----------10-----------11------------|
G|---11-----------10------------11---------7/----|
D|-----------------------------------------7/----|
A|-----------------------------------------------|
E|-----------------------------------------------|

                                                                            rythm figure 1:
E|-------------------------------------------------------|
B|-------------------------------------------------------|
G|-----4--7--2--2-0-2-0----------------------------------|4x
D|--4--4--7--2--2-0-2-0----------------------------------|
A|--4--2--5--0-------------------------------------------|
E|--2----------------------------------------------------|
in verse you just repeat rythm figure 1.


chorus:
E|---------------------------------------------------------------------|
B|---------------------------------------------------------------------|
G|---5-5-5-5-5-5-5-5-7-7-7-7-7-7-7-7-2--2--1--1--1--3--3--5--5--5------|
D|---5-5-5-5-5-5-5-5-7-7-7-7-7-7-7-7-2--2--2--2--2--3--3--5--5--5------|4X
A|---3-3-3-3-3-3-3-3-5-5-5-5-5-5-5-5-------2--2--2---------------------|
E|---------------------------------------------------------------------|
[ Tab from: http://www.guitartabs.cc/tabs/w/wig_wam/rock_my_ride_tab.html ]
then repeat RYTHMFIGURE 1 5times
then repeat chorus 4 times
e|------------------------------------------|
b|------------------------------------------|
g|------------------------------------------|
d|----------------------------------4X------|
a|---3-5-7---------3-5-3-5-3----------------|
e|---------3-3-5-5--------------------------|


SOLO
E|-------------------------------------------------------------------------|
B|----|:10-12-14-12-14-12--12-14-16-14-16-14-8-10-12-10-12-10:|2x----------|
G|--------------------------------------------------------------12-14-16-8-|
D|-------------------------------------------------------------------------|
A|-------------------------------------------------------------------------|
E|-------------------------------------------------------------------------|
VERY FAST SOLO:
E|--------------------------------------------------------------------------|
B|:15-15-16-15-17-15-15-16-15-15-17-15-15-15-15-17-17-18-17-17-19-17-17-18--|
G|--------------------------------------------------------------------------|
D|--------------------------------------------------------------------------|
A|--------------------------------------------------------------------------|
E|--------------------------------------------------------------------------|

e|-----------------------------------------------------------------------|
b|-17-17-19-17-17-17-17-14-14-15-14-14-16-14-14-15-14-14-16--------------|
g|----------------------------------------------------------12-14-16-8---|2x
d|-----------------------------------------------------------------------|
a|-----------------------------------------------------------------------|
e|-----------------------------------------------------------------------|


repeat rythm figure 1 2x
repeat chorus 3x
repeat rythm figure 1 2x


ps:listen to the cd to understand this