Wig Wam - In My Dreams Chords & Tabs

 

In My Dreams Chords & Tabs

Wig Wam Chords & Tabs

Version: 3 Type: Tab 0 ratings
1 star 2 stars 3 stars 4 stars 5 stars
comments

In My Dreams Tab

   
Tabbed by: Daniel Bodinson
Email: spaca_ace__@hotmail.com 


E||--------------------------|--------------------|------------------|
B||--------------------------|--------------------|------------------|
G||--------------------------|--------------5--5--|------------------|
D||--9--9--9--9--9--9--9--9--|--------------5--5--|------------------|
A||--7--7--7--7--7--7--7--7--|--------------3--3--|------------------|
E||--------------------------|--------------------|------------------|


                                                                   
-------------------|-------------------|--------------------------|
-------------------|--3----------------|--------------------------|
-------------------|--2----------------|--------------------------|
--5----------------|--4----------------|--9--9--9--9--9--9--9--9--|
--5----------------|--5----------------|--7--7--7--7--7--7--7--7--|
--3----------------|--2----------------|--------------------------|


                                                           
--------------------------|-------------------------------|
--------------------------|-------------------------------|
--------------------------|-------------------------------|
--9--9--9--9--9--9--9--9--|--9--9--9--10--10--10--10--10--|
--7--7--7--7--7--7--7--7--|--7--7--7--7---7---7---7---7---|
--------------------------|-------------------------------|


                                                                
-------------------------------|-------------------------------|
-------------------------------|-------------------------------|
-------------------------------|-------------------------------|
--7--7--7--10--10--10--10--10--|--9--9--9--10--10--10--10--10--|
--7--7--7--7---7---7---7---7---|--7--7--7--7---7---7---7---7---|
-------------------------------|-------------------------------|


                                                           
-------------------------------|--------------------------|
-------------------------------|--------------------------|
-------------------------------|--------------------------|
--7--7--7--10--10--10--10--10--|--5--5--5--5--5--5--5--5--|
--7--7--7--7---7---7---7---7---|--3--3--3--3--3--3--3--3--|
-------------------------------|--------------------------|


                                                           
--------------------------|-------------------------------|
--------------------------|-------------------------------|
--------------------------|-------------------------------|
--7--7--7--7--7--7--7--7--|--9--9--9--10--10--10--10--10--|
--5--5--5--5--5--5--5--5--|--7--7--7--7---7---7---7---7---|
--------------------------|-------------------------------|


                                                                
-------------------------------|-------------------------------|
-------------------------------|-------------------------------|
-------------------------------|-------------------------------|
--7--7--7--10--10--10--10--10--|--9--9--9--10--10--10--10--10--|
--7--7--7--7---7---7---7---7---|--7--7--7--7---7---7---7---7---|
-------------------------------|-------------------------------|


                                                            
-------------------------------|---------------------------|
-------------------------------|---------------------------|
-------------------------------|---------------------------|
--7--7--7--10--10--10--10--10--|--2------------------------|
--7--7--7--7---7---7---7---7---|---------------------------|
-------------------------------|-----0--0--3--0-0-5--3--0--|


                                                                    
---------------------------|-------------------|-------------------|
---------------------------|-------------------|-------------------|
---------------------------|--5----------------|--7----------------|
--2------------------------|--5----------------|--7----------------|
---------------------------|--3----------------|--5----------------|
-----0--0--3--0-0-5--3--0--|-------------------|-------------------|


                                                                             
--------------------------|------------------------|-----------------------|
--------------------------|------------------------|-----------------------|
--------------------------|--5----5----------------|----------4--4----5--5-|
--5--4--5--4--5--4--5--4--|--5----5----------------|--2--2----4--4----5--5-|
--3--2--3--2--3--2--3--2--|--3----3----------------|--2--2----2--2----3--3-|
--------------------------|------------x-x-7/---0--|--0--0-----------------|


                                                                            
------------------------|--------------------------|-----------------------|
-----------------------|--------------------------|------------------------|
--5--5--5--5--5--5--5--|--------------------------|------------------------|
--5--5--5--5--5--5--5--|--5--5--5--5--5--5--5--5--|--4--4--4--4--4--4--4--4|
--3--3--3--3--3--3--3--|--5--5--5--5--5--5--5--5--|--5--5--5--5--5--5--5--5|
-----------------------|--3--3--3--3--3--3--3--3--|--2--2--2--2--2--2--2--2|


                                                                              
-----------------------|-------------------------|-------------------------|
-----------------------|-------------------------|-------------------------|
---------4--4----5--5--|----5--5--5--5--5--5--5--|--7--7--7--7--7--7--7--7-|
-2--2----4--4----5--5--|----5--5--5--5--5--5--5--|--7--7--7--7--7--7--7--7-|
-2--2----2--2----3--3--|----3--3--3--3--3--3--3--|--5--5--5--5--5--5--5--5-|
-0--0------------------|-------------------------|-------------------------|


                                                           
--------------------------|-------------------------------|
--------------------------|-------------------------------|
--8--8--8--8--8--8--8--8--|-------------------------------|
--9--9--9--9--9--9--9--9--|--9--9--9--10--10--10--10--10--|
--6--6--6--6--6--6--6--6--|--7--7--7--7---7---7---7---7---|
--------------------------|-------------------------------|


                                                            
-------------------------------|---------------------------|
-------------------------------|---------------------------|
-------------------------------|---------------------------|
--7--7--7--10--10--10--10--10--|--2------------------------|
--7--7--7--7---7---7---7---7---|---------------------------|
-------------------------------|-----0--0--3--0-0-5--3--0--|


                                                                        
---------------------------|-------------------|-----------------------|
---------------------------|-------------------|-----------------------|
---------------------------|--5----------------|--7--------------------|
--2------------------------|--5----------------|--7--------------------|
---------------------------|--3----------------|--5--------------------|
-----0--0--3--0-0-5--3--0--|-------------------|------------x-x-7/---0-|

[ Tab from: http://www.guitartabs.cc/tabs/w/wig_wam/in_my_dreams_tab_ver_3.html ]
                                                                            
---------------------------|---------------------------|-------------------|
---------------------------|---------------------------|-------------------|
---------------------------|---------------------------|--5----------------|
--2------------------------|--2------------------------|--5----------------|
---------------------------|---------------------------|--3----------------|
-----0--0--3--0-0-5--3--0--|-----0--0--3--0-0-5--3--0--|-------------------|


                                                                            
-----------------------|--------------------------|------------------------|
-----------------------|--------------------------|------------------------|
-----------------------|--------------------------|--5----5----------------|
--------9--9--7--7--5--|--5--4--5--4--5--4--5--4--|--5----5----------------|
--------7--7--5--5--3--|--3--2--3--2--3--2--3--2--|--3----3----------------|
-----------------------|--------------------------|------------x-x-7/---0--|


                                                                             
-----------------------|-------------------------|-------------------------|
-----------------------|-------------------------|-------------------------|
---------4--4----5--5--|----5--5--5--5--5--5--5--|-------------------------|
-2--2----4--4----5--5--|----5--5--5--5--5--5--5--|--5--5--5--5--5--5--5--5-|
-2--2----2--2----3--3--|----3--3--3--3--3--3--3--|--5--5--5--5--5--5--5--5-|
-0--0------------------|-------------------------|--3--3--3--3--3--3--3--3-|


                                                                              
-------------------------|------------------------|------------------------|
-------------------------|------------------------|------------------------|
-------------------------|----------4--4----5--5--|----5--5--5--5--5--5--5-|
-4--4--4--4--4--4--4--4--|--2--2----4--4----5--5--|----5--5--5--5--5--5--5-|
-5--5--5--5--5--5--5--5--|--2--2----2--2----3--3--|----3--3--3--3--3--3--3-|
-2--2--2--2--2--2--2--2--|--0--0------------------|------------------------|


                                                                               
-------------------------|--------------------------|----------------------|
-------------------------|--------------------------|----------------------|
-7--7--7--7--7--7--7--7--|--8--8--8--8--8--8--8--8--|----------4--4----5--5|
-7--7--7--7--7--7--7--7--|--9--9--9--9--9--9--9--9--|--2--2----4--4----5--5|
-5--5--5--5--5--5--5--5--|--6--6--6--6--6--6--6--6--|--2--2----2--2----3--3|
-------------------------|--------------------------|--0--0----------------|


                                                                                
----------------------|--------------------------|-------------------------|
----------------------|--------------------------|-------------------------|
-5--5--5--5--5--5--5--|--------------------------|-------------------------|
-5--5--5--5--5--5--5--|--5--5--5--5--5--5--5--5--|--4--4--4--4--4--4--4--4-|
-3--3--3--3--3--3--3--|--5--5--5--5--5--5--5--5--|--5--5--5--5--5--5--5--5-|
----------------------|--3--3--3--3--3--3--3--3--|--2--2--2--2--2--2--2--2-|


                                                                              
-----------------------|-------------------------|-------------------------|
-----------------------|-------------------------|-------------------------|
---------4--4----5--5--|----5--5--5--5--5--5--5--|--7--7--7--7--7--7--7--7-|
-2--2----4--4----5--5--|----5--5--5--5--5--5--5--|--7--7--7--7--7--7--7--7-|
-2--2----2--2----3--3--|----3--3--3--3--3--3--3--|--5--5--5--5--5--5--5--5-|
-0--0------------------|-------------------------|-------------------------|


                                                                             
--------------------------|-------------------------|----------------------|
--------------------------|-------------------------|----------------------|
--8--8--8--8--8--8--8--8--|-------------------------|----------------------|
--9--9--9--9--9--9--9--9--|-------------------------|----------------------|
--6--6--6--6--6--6--6--6--|--0--2--3----3--2--0-----|----------------------|
--------------------------|----------------------0--|----2--3----3--2--0---|


                                                                      
-------------------------|-----------------------|----------8--------|
-------------------------|-----------------------|-------------------|
-------------------------|-----------------------|-------------------|
-------------------------|-----------------------|-------------------|
--0--2--3----3--2--0-----|------------------5----|-------------------|
----------------------0--|----2--3----3--2-------|-------------------|


                                                                     
--8--7----5----7-------|--------------------|-----------------------|
--------------------8--|--------------8--8--|--7--8----7----3----5--|
-----------------------|--------------------|-----------------------|
-----------------------|--------------------|-----------------------|
-----------------------|--------------------|-----------------------|
-----------------------|--------------------|-----------------------|


                                                                          
------------------------|-----------------------|------------------------|
------------------------|-----------------------|------------------------|
------------------------|-----------------------|----------5--5----6--6--|
--9--9/---9--9--8/---8/-|--7----7/-6----6/-5----|--3--3----5--5----6--6--|
--7--7/---7--7--6/---6/-|--5----5/-4----4/-3----|--3--3----3--3----4--4--|
------------------------|-----------------------|--1--1------------------|


                                                                                
----------------------|--------------------------|-------------------------|
----------------------|--------------------------|-------------------------|
-6--6--6--6--6--6--6--|--------------------------|-------------------------|
-6--6--6--6--6--6--6--|--6--6--6--6--6--6--6--6--|--5--5--5--5--5--5--5--5-|
-4--4--4--4--4--4--4--|--6--6--6--6--6--6--6--6--|--6--6--6--6--6--6--6--6-|
----------------------|--4--4--4--4--4--4--4--4--|--3--3--3--3--3--3--3--3-|


                                                                              
-----------------------|-------------------------|-------------------------|
-----------------------|-------------------------|-------------------------|
---------5--5----6--6--|----6--6--6--6--6--6--6--|--8--8--8--8--8--8--8--8-|
-3--3----5--5----6--6--|----6--6--6--6--6--6--6--|--8--8--8--8--8--8--8--8-|
-3--3----3--3----4--4--|----4--4--4--4--4--4--4--|--6--6--6--6--6--6--6--6-|
-1--1------------------|-------------------------|-------------------------|


                                    
----------------------------------||
----------------------------------||
--9---9---9---9---9---9---9---9---||
--10--10--10--10--10--10--10--10--||
--7---7---7---7---7---7---7---7---||
----------------------------------||

| /  slide up
| \  slide down
| h  hammer-on
| p  pull-off
| ~  vibrato
| +  harmonic
| x  Mute note
Comments