Widespread Panic - Old Joe Chords & Tabs

 

Old Joe Chords & Tabs

Widespread Panic Chords & Tabs

Version: 1 Type: Tab 0 ratings
1 star 2 stars 3 stars 4 stars 5 stars
comments

Old Joe Tab

Old Joe 
Widespread Panic
Dont Tell the Band

Standard Tuning (EADGBE)

Intro:
e--3--3--3--3--3--3--3----3-------2-----3------------          2x
B--3--3--3--3--3--3--3----1-------3-----3------------
G--0--0--0--0--0--0--0----2-------2-----0------------
D--0--2--0--2--0--2--0----2-------0-----0--0/2-------
A--2--3--2--3--2--3--2----0-------x-----2------1/2---
E--3--0--3--0--3--0--3----x-------x-----3---------0/3

[ Tab from: http://www.guitartabs.cc/tabs/w/widespread_panic/old_joe_tab.html ]
Refrain:
e--3-----2-----3-----3-----6-----3-------------------  throught song
B--1-----3-----3-----1-----4-----3-------------------
G--2-----2-----0-----2-----5-----0-------------------
D--2-----0-----0-----2-----5-----0-------------------
A--0-----x-----2-----0-----x-----2-------------------
E--x-----x-----3-----x-----x-----3-------------------


this goes on through the song and you close with the intro 
thanks- mark salmon
Comments