Widespread Panic - Blue Indian Chords & Tabs

 

Blue Indian Chords & Tabs

Widespread Panic Chords & Tabs

Version: 1 Type: Tab 0 ratings
1 star 2 stars 3 stars 4 stars 5 stars
comments

Blue Indian Tab

Standard

Intro:

E----5-5-5-5-5-5-5-5-5---------3----------------------
B----6-6-6-0-6-6-6-0-6---------3----------------------
G----7-7-7-7-7-7-7-7-7---------0----------------------    2x
D----7-7-7-7-7-7-7-7-7---------0----------------------
A----5-5-5-5-5-5-5-5-5---------2----------------------
E----0-0-0-0-0-0-0-0-0---------3----------------------

E----1--------2---3------5----------------------------
B----1--------2---2------4----------------------------
G----2--------2---2------4----------------------------
D----3--------x---x------x----------------------------
A----3--------x---x------x----------------------------
E----1--------x---x------x----------------------------

E----1--------5-5-5-5-5-5-5-5-5-----------------------
B----1--------6-6-6-6-6-6-6-6-6-----------------------
G----2--------7-7-7-7-7-7-7-7-7-----------------------
D----3--------7-7-7-7-7-7-7-7-7-----------------------
A----3--------5-5-5-5-5-5-5-5-5-----------------------
E----1--------0-0-0-0-0-0-0-0-0-----------------------

Verse 1 
 Same as inro

Chorus 

E----2---------5---5--------3-------------------------
B----3---------4---4--------2-------------------------
G----2---------4---4--------2-------------------------
D----0---------x---x--------x-------------------------
A----x---------x---x--------x-------------------------
E----x---------x---x--------x-------------------------
[ Tab from: http://www.guitartabs.cc/tabs/w/widespread_panic/blue_indian_tab.html ]
E----3--0-------------------2-------------------------
B----3--2-------------------3-------------------------
G----0--2---------2x then---2-------------------------
D----0--2-------------------0-------------------------
A----2--0-------------------x-------------------------
E----3--0-------------------x-------------------------

Solo

E-----------------------------------------------------
B-----------------------------------------------------
G----------0--2--3--0-----7--5--7--5--2---------------
D--0--2--4--------------------------------------------
A-----------------------------------------------------
E-----------------------------------------------------

E-----------------------------------------------------
B-----------------------------------------------------
G----0--1--2----0--1--2-------------------------------
D--3----------3----------3--2--0----------------------
A-----------------------------------------------------
E-----------------------------------------------------

E-----------------------------------------------------
B-----------------------------------------------------
G----------0--2--7--2-----7--5--7--3/5--3--0----------
D--0--2--4--------------------------------------------
A-----------------------------------------------------
E-----------------------------------------------------

E-----------------------------------------------------
B--------------2-------------2------------------------
G--3--2--0----2--2--0----0--2--2--0-------------------
D-----------3----------3------------3--2--0-----------
A-----------------------------------------------------
E-----------------------------------------------------

Thats about it;
 Comments
Mark Salmon
chrisfarsal@aol.com
chrisfarsal@hotmail.com(msn messenger)




 
 
Comments