Widespread Panic - Airplane Chords & Tabs

 

Airplane Chords & Tabs

Widespread Panic Chords & Tabs

Version: 1 Type: Tab 0 ratings
1 star 2 stars 3 stars 4 stars 5 stars
comments

Airplane Tab

Easiest if finrerpicking is used 

[ Tab from: http://www.guitartabs.cc/tabs/w/widespread_panic/airplane_tab.html ]
---------------------------------------
---------------------------------------
---------0-------------0-----2---------
---3-------3-------3-----3-----3-------
-----0---------0-1---3-----3-----------
-1-----3-----3-------------------------


-----------------
-----------------
-5---3---2-------
-5---3---2---3---
-3---1---0---3---
-------------1---


I Don't think it's completely right,
but it's good enough for me.
Comments