Who - Wont Get Fooled Again Chords & Tabs

 

Wont Get Fooled Again Chords & Tabs

Who Chords & Tabs

Version: 4 Type: Tab 0 ratings
1 star 2 stars 3 stars 4 stars 5 stars
comments

Wont Get Fooled Again Tab

   
Band: The Who
Song: Won't Get Fooled Again (Full Length Version)
Album: Who's Next
Tabber: clark@theoddmenout.com

~= ring out chord
*= mute note

Intro:                           x2
e-----------------------|----------|----------------|
B-----------------------|----------|----------------|
G--2~--ring till 00:30--|----2~----|----2--2-2-2----|
D--2~-------------------|----2~----|----2--2-2-2----|
A--0~-------------------|----0~----|----0--0-0-0----|
E-----------------------|--3-------|--3-------------|

Verse 1 Lead: (00:44)
          (A)     (D)     (A)       (D)    (A)    (D)       (E)    (C)(G)
e---------------------------------------------------------------0---------|
B--7p5/3---------2-2-------------------------2------------------0---1--3--|
G--------2-2-----2-2-------2-x-2-2-----------2------------------1---0--0--|
D--------------------------2-x----------------------------------2---2--0--|
A----------------------0---0-x---------0---0-----------0-----2------3-----|
E---------------------------------------------------------3--0---------3--|
       "Fighting..."      "Children..."   "Morals..." "Will Be..."
  (A)  (D)    (A)    (D)    (A)     (D)       (E)    (C)(G)
e-------------------------------------------------0---------|
B---------------2-----2--------2-------2----------0---1--2--|
G--2------------2-----2--------2-------2----------1---0--0--|
D--2------------2--------------2------------------2---2--0--|
A--0------0---0---------0----------------------2------3-----|
E----------------------------------------3h5-3-0---------3--|
  "Men..."   "Judgment..." "Decided..." "Seems.."

Verse 1: (Chords)
         A               D
We'll be fighting in the streets
         A               D
With our children at our feet
        A                D               E    C G
And the morals that they worship will be gone
        A                  D
And the men who spurred us on
       A                D
Sit in judgement of all wrong
       A            D                 E    C G
They decide and the shotgun sings the song

Chorus Lead 1: (01:13)
   (D)   (A) x6
e----2--------|------4---2---0---------7--------4---2--------4---------7--|
B------3------|-----------------------------------------------------------|
G--------2-2--|--2/4---4---x------5-/7------2/4---4---x-2-/4------2/4-----|
D-------------|-----------------------------------------------------------|
A-------------|-----------------------------------------------------------|
E-------------|-----------------------------------------------------------|
  "Tip..."    "Play.."                  "Yesterday..."
  (D)   (G)(D)
e--2---x-3--2----2~--|
B--3---x-3--3----3~--|
G--2---x-0--2----2~--|
D--0-----0--0----0~--|
A--------------3-----|
E--------3-----------|
 "Pray..."         "We don't get fooled agin!"

Chorus:
     D      A          D         A
I'll tip my hat to the new constitution,
D      A           D       A
Take a bow for the new revolution,
D         A           D          A
Smile and grin at the change all around me,
G                     E
Pick up my guitar and play
G               E
Just like yesterday
          G                   D   G D
Then I'll get on my knees and pray...

We don't get fooled again

Interlude 1: (01:40)
e--------3---2----------3----2--|
B--2~----3-3-3-----2----3--3-3--|
G--2~----0-0-2-----2----0--2-2--|
D--2~----0-0-0-----2----0--0-0--|
A--0~--------------0------------|
E--------3-------3------3-------|

e-----5-----5------5-----------------5-------------|
B-----5-----5------5-----3-----------5-----3--2-3--|
G-----2-2---2-2-2--2-2-2-2--2-2-2------2-2-2----2--|
D------------------------0--0-0-0---------------0--|
A--0------------------------0-0-0---------------0--|
E--------------------------------------------------|
                            * * *

Verse 2 Lead: (01:54)
  (A)    (D)  (A)    (D)   (A)       (D)       (E) (C)(G)
e-----------------------------------------------0---------|
B--2~-------------------------------------------0---1--3--|
G--2~-----------2-2~----------2-2~--------------1---0--0--|
D--2~-------------------------------------------2---2--0--|
A--0~------0------------0---0-------------0---------3-----|
E-------------------------------------------3-0--------3--|
  "Change..." "Knew.."    "Liberated..." "That's all..."
  (A)     (D)         (A)  (D)           (A)     (D)   (E) (C)(G)
e----------------------5------------------5-------------0---------|
B----------10/3-10/3---5-----10/3-10/3----5-------------0---1--3--|
G--2~---------------------------------------------------1---0--0--|
D--2~---------------------------------------------------2---2--0--|
A--0~-------------------------------------------------------3-----|
E-----------------------------------------------------0--------3--|
 "World..."           "History..."    "Banners..."

Verse 2:
    A                 D
The change, it had to come,
   A            D
We knew it all along
        A         D                     E   C G
We were liberated from the fold, that's all
        A                    D
And the world looks just the same
    A             D
And history ain't changed
           A                 D                 E   C G
'Cause the banners, they are flown in the next war

Chorus Lead 2: (2:22)
   (D)   (A) x6
e----2--------|--7p5p3-3-3----------7---12-12--12-12--12--12--|
B------3------|------------5----------------------------------|
G--------2-2--|----------------5-/7---------------------------|
D-------------|-----------------------------------------------|
A-------------|-----------------------------------------------|
E-------------|-----------------------------------------------|
   "Tip..."    "Play..."           "Yesterday..."
    (G)   (D) (G)(D) (G)(D)
e----3-----2----------------|
B----3---------3--3---3--3--|
G--------------0--2---0--2--|
D--------------0--0---0--0--|
A---------------------------|
E---------------------------|
 "Get..." "Pray...           "We don't get fooled again..."

Interlude 2: (02:49)                                      x4
e--------------------------------|---------------------------|
B--2~------3--------3---2~---3~--|--2-----------2------2--2--|
G--2~------0-4b5rp2-2---2~---0~--|--2---2---2---2------3--3--|
D--2~------0--------0---2~---0~--|--2---2---2---2------0--0--|
A--0~-------------------0~-------|--0---0---0---0------------|
E----------3-----------------3~--|---(3)--3-------h3-0-------|

e--5-----5-----5----------------5-----5-----5-----------------|
B--5-----5-----5----------------5-----5-----5-----------------|
G--2-2-2-2-2-2-2--2-2-2-2-2-2---2-2-2-2-2-2-2-2--2-2-2-2-2-2--|
D-----------------0-0-0-0-0-0--------------------0-0-0-0-0-0--|
A-----------------0-0-0-0-0-0--------------------0-0-0-0-0-0--|
E-------------------------------------------------------------|
                  * * * * * *                    * * * * * *
e------------------------------5-----5---------|
B--2-0---------------2-0-------5-----5-----3~--|
G------2-2-2----2--2-----2-----2-2---2-----2~--|
D--------------------------2-------2---2-0-0~--|
A-------------0----------------------------0~--|
E----------------------------------------------|
 (This part hard to hear^)

Bridge Lead: (03:24) (This part also hard to hear but this correct)
  (B)                           (E)
e--------------------------------0~---------------------|
B--------------------------------0~---------------------|
G-----4~---------2---------------1~---------------------|
D--4--4~-----2/4---4-2------2----2~------------2-----2--|
A--2--2~----------------2-4----------------2h4---2h4----|
E------------------------------0------------------------|
 "Move..." "Family..."           "If..."  "Alive..."

e----------------5--------------------|
B----2~--------5----------------------|
G----2~----4b5-----4br-2----4~--------|
D----2~---------------------4~--------|
A--0------------------------2~--------|
E-------------------------------------|
 "Get..." "Smile..."       "Know..."

Bridge: (chords)
     B
I'll move myself and my family aside,
E
If we happen to be left half alive!
     A
I'll get all my papers and smile at the sky,
         B
Though I know that the hypnotized never lie...

Interlude 3: (03:38)                          x3
e-----------------------|-----------------------|
B-----------------------|-----------------------|
G--4----4-x-4--2-2---1--|--4----4--x-x-2-2---1--|
D--4----4-x-4--2-2---2--|--4----4--x-x-2-2---2--|
A--2----2-x-2--0-0-0-2--|--2----2--x-x-0-0-0-2--|
E--------------------0--|--------------------0--|

Solo: (03:54)
e-------------------5--5-5-5p4-5-4---5--5-5-5-4--4-4-4-2---------|
B--3--------7/5--------------------5----------------------3------|
G-----4~--------7-7------------------------------------------4~--|
D----------------------------------------------------------------|
A----------------------------------------------------------------|
E----------------------------------------------------------------|
[ Tab from: http://www.guitartabs.cc/tabs/w/who/wont_get_fooled_again_tab_ver_4.html ]
e--6b7--7-7h5-4-4-5-4-----------------------------------------------|
B-----------------------7b-7b-7b-7br--------------------------------|
G-----------------------7b-7b-7b-7br-----------2--2-4v--4-2---2-----|
D------------------------------------6-4---2/4--------------4----0--|
A-------------------------------------------------------------------|
E-------------------------------------------------------------------|

e-----------------------------------------0---------------------------|
B----------------------4--4--4-3-2-0~---5-----5-5-------4---4-3-2-0~--|
G---------------------------------------------------------------------|
D--4--4--4-2-4-2~-----------------------------------2/4---4-----------|
A---------------------------------------------------------------------|
E---------------------------------------------------------------------|

It's very hard to tell what's going on during the solo cuz there's the sythesizer and 
guitar overlaying, so, especially for the first part, this gives the right idea, but may 
every single note.

Interlude 4: (04:22)
e------------3--2-------------3--2--------------3--2-------------3-3-2~--|
B--2~--------3--3----2~-------3--3----2~--------3--3----2~-------3-3-3~--|
G--2~--------0--2----2~-------0--2----2~--------0--2----2~-------0-0-2~--|
D--2~--------0--0----2~-------0--0----2~--------0--0----2~-------0---0~--|
A--0~----------------0~---------------0~----------------0~---------------|
E------------------------------------------------------------------------|
                                     "Yeah!"

Verse 3 Lead: (04:36)
  (A) (D)              (A)      (D)    (A)         (D)    (E)     (C)  (G)
e-------------------------------------------------------------0------------|
B----------------------------------3~-----2--2-------3-3------1---1-1---3--|
G-------4b5r-p2p0-2----------------2~-----2--2----x--2-2------2---0-0---0--|
D------------------------2-------0-0~-----2--2----x--0-0------2---2-2---0--|
A--------------------3b--0-------------0--0--0--------------2-----3-3-0----|
E-----------------------------------------------------------0-----------3--|
  "Nothing..."        "Looks..."       "Slogans..."       "By-the-bye..."
  (A)          (D)      (A)      (D)    (A)     (D)  (E)   (C)  (G)
e-------------------------------------------------5---0~------------|
B-----------------------------------------------------0~----1----3--|
G----4b5r--2p0--2--------2~--------------2--2--2------------0----0--|
D------------------------2~---------------------------------2----0--|
A--------------------0---0~----------0----------------------3--0----|
E----------------------------------------------------------------3--|
   "Parting..."         "Parting..."    "Beards..."  "Overnight..."


Verse 3: (Chords)
        A              D
There's nothing in the streets
          A            D
Looks any different to me
        A             D              E   C  G
And the slogans are replaced, by-the-bye
        A              D
And the parting on the left
        A              D
Are now parting on the right
        A                     D             E  C  G
And the beards have all grown longer overnight

Chorus Lead 3: (05:05)
  (D)    (A) x6
e----2--------|---------12-10------------------------------------|
B------3------|--3~-----------12-10----8-------------------------|
G--------2-2--|--0~-----------------12---9-----11b12r-9----9-11--|
D-------------|--0~-------------------------------------11-------|
A-------------|--------------------------------------------------|
E-------------|--3~----------------------------------------------|
                "Pick up..."              "Yesterday..."
e--------------------------------------10---------|
B-----------------------------------10------------|
G--11-11b12--b12r-9----9/11-11---12-------12-11---|
D-------------------12----------------------------|
A-------------------------------------------------|
E-------------------------------------------------|
    "Get..."           "Pray..."                "We don't get fooled again!"

Interlude 5: (05:31)

This also gets pretty crazy towards the end, so listen to the song to grasp what's going 
and this should make sense.

e--------------------------------------------------------------------------|
B--2~------------2~--------3~----------2~-------3~----------2~-------------|
G--2~------------2~--------2~----------2~-------2~----------2~---------2~--|
D--2~------------2~--------0~----------2~-------0~----------2~---------0~--|
A--0~------------0~--------0~--------0-0~-----------------0-0~---------0~--|
E--------------------------------------------------------------------------|

e-----------------------------5-----5-----5------------------|
B--2-0-------2-0---3-3-3-3----5-----5-----5---3-3-3-3-3-3-3--|
G------2-2---2-2-2-2-2-2-2----2-2-2-2-2-2-2-2-2-2-2-2-2-2-2--|
D------------------0-0-0-0--------------------0-0-0-0-0-0-0--|
A------------------0-0-0-0--------------------0-0-0-0-0-0-0--|
E------------------------------------------------------------|
             * * * * * * *                    * * * * * * *
e--5-----5-----5-------------------5-----5--------------------------|
B--5-----5-----5---3-3-3-3-3-3-3---5-----5--------------------------|
G--2-2-2-2-2-2-2-2-2-2-2-2-2-2-2---2-2-2-2-2-x----------------------|
D------------------0-0-0-0-0-0-0--------------------2-4-------------|
A------------------0-0-0-0-0-0-0---------------3b4------3b4--0-2-0--|
E-------------------------------------------------------------------|
                   * * * * * * *
e--5-----5--------------------------------------------------------|
B--5-----5-----3--3---3-------------------------------------------|
G--2-2-2-2-2-2-0--2---2--2p0-2p0-2p0-2p0-2p0-2p0-2p0-2p0-2p0-2p0--|
D--------------0--0---0-------------------------------------------|
A-----------------------------------------------------------------|
E--------------3--------------------------------------------------|

e--------------------------------------------------------------------------|
B--2--2----2---3-3--3--3-3---17b18--17b18--17b18-17b18-17--------17--------|
G--2--2----2---0-0--2--2-2---17b18--17b18--17b18-17b18----17-16--17-16-14--|
D--2--2----2---0-0--0--0-0-------------------------------------------------|
A--0--0----0---------------------------------------------------------------|
E--------------3-3---------------------------------------------------------|

e--5-----5-----5-----5-----5--------5-----5-----5----------2--3--|
B--5-----5-----5-----5-----5--------5-----5-----5------2---3--3--|
G--2-0-0-2-0-0-2-0-0-2-0-0-2-0-0----2-0-0-2-0-0-2-0-0--2---2--0--|
D------------------------------------------------------2---0-----|
A------------------------------------------------------0---------|
E----------------------------------------------------------------|

e-------------------3--3---------------------------------------------|
B--2~----------3-3--3--3---17b---17b---17b--17b17b17b17b17b17b--17b--|
G--2~-----2----2-2--0--0---17b---17b---17b--17b17b17b17b17b17b--17b--|
D--2~-----2----0-0--0--0---------------------------------------------|
A--0~-----0----------------------------------------------------------|
E--------------------------------------------------------------------|

e---------------------------------------------------------------------|
B---------17-------------------------2~-------------------------------|
G--17b18-----17-14-b16r--------------2~------------------2~-----------|
D-----------------------12-/10-10----2~------------------2~-----------|
A----------------------------------3-0~------------------0~-----------|
E---------------------------------------------------------------------|


---------------------------------INTERMISSION-------------------------------

                            No guitar until 07:45

e-----------------------------------------------|
B--2~---------3---3-----2~-----------3----3~----|
G--2~---------0-x-2-----2~-----------0--x-2~----|
D--2~---------0-x-0-----2~-----------0--x-0~----|
A--0~-----------------0-0~----------------------|
E-------------3----------------------3----------|
 "YEAH!!!"

Outro Verse Lead: (07:52)
  (A)       (G)  (D)  (A)       (G)  (D)
e------------------------------------------|
B--2~--------3--x-3----2~--------3--x-3----|
G--2~--------0--x-2----2~--------0--x-2----|
D--2~--------0----0----2~--------0----0----|
A--0~------------------0~------------------|
E------------3-------------------3---------|
 "Meet the new boss...Same as the old boss"

Outro Verse: (Chords)
A                 G  D
Meet the new boss
A                    G  D
Same as the old boss

Outro: (07:59)           x4
e---------------------2-2--|--5-----5-----5-----------5-----5-----5--------|
B---------------------3-3--|--5-----5-----5-----3-----5-----5-----5-----3--|
G--2--x--2--x--2-2----2-2--|--2-2-2-2-2-2-2-2-2-2---2-2-2-2-2-2-2-2-2-2-2--|
D--2--x--2--x--2-2----0-0--|--------------------0---2-------------------0--|
A--0--x--0--x--0-0---------|------------------------0----------------------|
E------------------3-------|-----------------------------------------------|

e--0---0---0---0--------------------|
B--2---2---2---2---2~---------------|
G--2---2---2---2---2~---------------|
D--2---2---2---2---2~---------------|
A--0---0---0---0---0~---------------|
E-----------------------------------|

Wow, this tab was a huge, lengthy ordeal, but I hope it was worth it.  This is a great 
and I hope (for the first time) you guys will be able to play it start to finish...

That's it! For suggestions, corrections, and requests, email me:
                        oddmenout4@yahoo.com
Comments