Who - The Seeker Chords & Tabs

 

The Seeker Chords & Tabs

Who Chords & Tabs

Version: 4 Type: Tab 0 ratings
1 star 2 stars 3 stars 4 stars 5 stars
comments

The Seeker Tab

   
--------------------------------------------------------------------

  THE WHO - THE SEEKER (Townsend) Released as a single with HERE FOR 
            MORE in 1970.

--------------------------------------------------------------------

    Tabbed by:PJVillanueva






I've looked under chairs
I've looked under tables
I've tried to find the key
To fifty million fable

They call me The Seeker
I've been searching low and high
I won't get to get what I'm after
Till the day I die

I asked Bobby Dylan
I asked The Beatles
I asked Timothy Leary
But he couldn't help me either

Chorus

People tend to hate me
'Cause I never smile
As I ransack their homes
They want to shake my hand

Focusing on nowhere
Investigating miles
I'm a seeker
I'm a really desperate man

Guitar solo

I won't get to get what I'm after
Till the day I die

I learned how to raise my voice in anger
Yeah, but look at my face, ain't this a smile?
I'm happy when life's good
And when it's bad I cry
I've got values but I don't know how or why

I'm looking for me
You're looking for you
We're looking in at each other
And we don't know what to do

Chorus





                                     
  G   A                                           G   D
e|------- ------- ------- -------|------- ------- 3---2-- -------|
B|0---2---2---2---2-----------2-2|2---2---2---2---3---3----------|
G|0---2---2---2---2-----------2-2|2---2---2---2---0---2----------|
D|0---2---2---2---2-----------2-2|2---2---2---2---0---0----------|
A|----0---0---0---0-----------0-0|0---0---0---0---2--------------|
E|3------------------------------|----------------3--------------|




  A                                               G   D
e|------- ------- ------- -------|------- ------- 3---2-- -------|
B|2---2---2---2---2-----------222|2-------2-------3---3----------|
G|2---2---2---2---2-----------222|2-------2-------0---2----------|
D|2---2---2---2---2-----------222|2-------2-------0---0----------|
A|0---0---0---0---0-----------000|0-------0-------2--------------|
E|-------------------------------|----------------3--------------|



  G   C
e|------- ------- ------- -------|------- ------- ------- -------|
B|0---1--------------------------|-------------------------------|
G|0---0--------------------------|-------------------------------|
D|0---2--------------------------|-------------------------------|
A|2---3--------------------------|-------------------------------|
E|3---3--------------------------|-------------------------------|


                                  x       X   X       X   X
  C   G
e|------- ------- ------- -------|------- ------- ------- -------|
B|1---0--------------------------|-------------------------------|
G|0---0--------------------------|-------------------------------|
D|2---0--------------------------|-------------------------------|
A|3---2--------------------------|-------------------------------|
E|3---3--------------------------|-------------------------------|



  A                                               G   D
e|------- ------- ------- -------|------- ------- 3---2-- -------|
B|2---2---2---2---2-----------2-2|2-------2-------3---3----------|
G|2---2---2---2---2-----------2-2|2-------2-------0---2----------|
D|2---2---2---2---2-----------2-2|2-------2-------0--------------|
A|0---0---0---0---0-----------0-0|0-------0-------2--------------|
E|-------------------------------|----------------3--------------|

e|------- ------- 9------ -------|------- ------- ------- -------|
B|---------------10--------------|-------------------------------|
G|----------------9--------------|-------------------------------|
D|-------------------------------|-------------------------------|
A|-------------------------------|-------------------------------|
E|-------------------------------|-------------------------------|



  A                                               G   D
e|------- ------- ------- -------|------- ------- 3---2-- -------|
B|2---2---2---2---2-----------2-2|2---2---2---2---3---3----------|
G|2---2---2---2---2-----------2-2|2---2---2---2---0---2----------|
D|2---2---2---2---2-----------2-2|2---2---2---2---0--------------|
A|0---0---0---0---0-----------0-0|0---0---0---0---2--------------|
E|-------------------------------|----------------3--------------|

e|------- ------- 9------ -------|------- ------- ------- -------|
B|---------------10--------------|-------------------------------|
G|----------------9--------------|-------------------------------|
D|-------------------------------|-------------------------------|
A|-------------------------------|-------------------------------|
E|-------------------------------|-------------------------------|



  A                                               G   D
e|------- ------- ------- -------|------- ------- 3---2-- -------|
B|2---2---2---2---2-----------2-2|2---2---2---2---3---3----------|
G|2---2---2---2---2-----------2-2|2---2---2---2---0---2----------|
D|2---2---2---2---2-----------2-2|2---2---2---2---0--------------|
A|0---0---0---0---0-----------0-0|0---0---0---0---2--------------|
E|-------------------------------|----------------3--------------|
     I've looked under        chairs
e|------- ------- 9------ -------|------- ------- ------- -------|
B|---------------10--------------|-------------------------------|
G|----------------9--------------|-------------------------------|
D|-------------------------------|-------------------------------|
A|-------------------------------|-------------------------------|
E|-------------------------------|-------------------------------|



  A                                               G   D
e|------- ------- ------- -------|------- ------- 3---2-- -------|
B|2---2---2---2---2-----------2-2|2-------2-------3---3----------|
G|2---2---2---2---2-----------2-2|2-------2-------0---2----------|
D|2---2---2---2---2-----------2-2|2-------2-------0--------------|
A|0---0---0---0---0-----------0-0|0-------0-------2--------------|
E|-------------------------------|----------------3--------------|
     I've looked  under       tables
e|------- ------- 9------ -------|------- ------- ------- -------|
B|---------------10--------------|-------------------------------|
G|----------------9--------------|-------------------------------|
D|-------------------------------|-------------------------------|
A|-------------------------------|-------------------------------|
E|-------------------------------|-------------------------------|



  A                                               G   D
e|------- ------- ------- -------|------- ------- 3---2-- -------|
B|2---2---2---2---2-----------2-2|2---2---2---2---3---3----------|
G|2---2---2---2---2-----------2-2|2---2---2---2---0---2----------|
D|2---2---2---2---2-----------2-2|2---2---2---2---0--------------|
A|0---0---0---0---0-----------0-0|0---0---0---0---2--------------|
E|-------------------------------|----------------3--------------|
     I've tried to find   the key                             To 
e|------- ------- 9------ -------|------- ------- ------- -------|
B|---------------10--------------|-------------------------------|
G|----------------9--------------|-------------------------------|
D|-------------------------------|-------------------------------|
A|-------------------------------|-------------------------------|
E|-------------------------------|-------------------------------|



  A
e|------- ------- ------- -------|------- ------- ------- -------|
B|2---2---2---2---2-----------2-2|2-------2-------2-------2------|
G|2---2---2---2---2-----------2-2|2-------2-------2-------2------|
D|2---2---2---2---2-----------2-2|2-------2-------2-------2------|
A|0---0---0---0---0-----------0-0|0-------0-------0-------0------|
E|-------------------------------|-------------------------------|
  fifty       million         fables         They call    me  the 
e|------- ------- 9------ -------|------- ------- ------- -------|
B|---------------10--------------|-------------------------------|
G|----------------9--------------|-------------------------------|
D|-------------------------------|-------------------------------|
A|-------------------------------|-------------------------------|
E|-------------------------------|-------------------------------|



  D                                               G   C
e|2------ 2------ 2------ ----2-2|2---2-- 2---2-- 3---0-- -------|
B|3-------3-------3-----------3-3|3---3---3---3---3---1----------|
G|2-------2-------2-----------2-2|2---2---2---2---0---0----------|
D|0-------0-------0-----------0-0|0---0---0---0---0---2----------|
A|-------------------------------|----------------2---3----------|
E|-------------------------------|----------------3---3----------|
  seeker
e|------- ------- 12----- -------|------- ------- ------- -------|
B|-------------------------------|-------------------------------|
G|-------------------------------|-------------------------------|
D|-------------------------------|-------------------------------|
A|-------------------------------|-------------------------------|
E|-------------------------------|-------------------------------|



  D 
e|2---2-- 2---2-- 2------ ----2-2|2------ 2------ 2------ 2------|
B|3---3---3---3---3-----------3-3|3-------3-------3-------3------|
G|2---2---2---2---2-----------2-2|2-------2-------2-------2------|
D|0---0---0---0---0-----------0-0|0-------0-------0-------0------|
A|-------------------------------|-------------------------------|
E|-------------------------------|-------------------------------|
                     I've been    searching       low     and high
e|------- ------- 12----- -------|------- ------- ------- -------|
B|-------------------------------|-------------------------------|
G|-------------------------------|-------------------------------|
D|-------------------------------|-------------------------------|
A|-------------------------------|-------------------------------|
E|-------------------------------|-------------------------------|



  A                                               G   D
e|------- ------- ------- -------|------- ------- 3---2-- -------|
B|2---2---2---2---2-----------2-2|2-------2-------3---3----------|
G|2---2---2---2---2-----------2-2|2-------2-------0---2----------|
D|2---2---2---2---2-----------2-2|2-------2-------0---0----------|
A|0---0---0---0---0-----------0-0|0-------0-------2--------------|
E|-------------------------------|----------------3--------------|

e|------- ------- 9------ -------|------- ------- ------- -------|
B|---------------10--------------|-------------------------------|
G|----------------9--------------|-------------------------------|
D|-------------------------------|-------------------------------|
A|-------------------------------|-------------------------------|
E|-------------------------------|-------------------------------|



  A
e|------- ------- ------- -------|------- ------- ------- -------|
B|2---2---2---2---2-----------2-2|2-------2-------2-------2------|
G|2---2---2---2---2-----------2-2|2-------2-------2-------2------|
D|2---2---2---2---2-----------2-2|2-------2-------2-------2------|
A|0---0---0---0---0-----------0-0|0-------0-------0-------0------|
E|-------------------------------|-------------------------------|

e|------- ------- 9------ -------|------- ------- ------- -------|
B|---------------10--------------|-------------------------------|
G|----------------9--------------|-------------------------------|
D|-------------------------------|-------------------------------|
A|-------------------------------|-------------------------------|
E|-------------------------------|-------------------------------|



  G   C
e|------- ------- ------- -------|------- ------- ------- -------|
B|0---1--------------------------|-------------------------------|
G|0---0--------------------------|-------------------------------|
D|0---2--------------------------|-------------------------------|
A|2---3--------------------------|-------------------------------|
E|3---3--------------------------|-------------------------------|
              I   won't   get to  get     what I'm after

                                  x       X   X       X   X
  C   G
e|------- ------- ------- -------|------- ------- ------- -------|
B|1---0--------------------------|-------------------------------|
G|0---0--------------------------|-------------------------------|
D|2---0--------------------------|-------------------------------|
A|3---2--------------------------|-------------------------------|
E|3---3--------------------------|-------------------------------|
                  Till        the day     I               die

 
  A                                               G   D
e|------- ------- ------- -------|------- ------- 3---2-- -------|
B|2---2---2---2---2-----------2-2|2-------2-------3---3----------|
G|2---2---2---2---2-----------2-2|2-------2-------0---2----------|
D|2---2---2---2---2-----------2-2|2-------2-------0---0----------|
A|0---0---0---0---0-----------0-0|0-------0-------2--------------|
E|-------------------------------|----------------3--------------|

e|------- ------- 9------ -------|------- ------- ------- -------|
B|---------------10--------------|-------------------------------|
G|----------------9--------------|-------------------------------|
D|-------------------------------|-------------------------------|
A|-------------------------------|-------------------------------|
E|-------------------------------|-------------------------------|



  A                                              
e|------- ------- ------- -------|------- ------- ------- -------|
B|2---2---2---2---2-----------2-2|2-------2-------2-------2------|
G|2---2---2---2---2-----------2-2|2-------2-------2-------2------|
D|2---2---2---2---2-----------2-2|2-------2-------2-------2------|
A|0---0---0---0---0-----------0-0|0-------0-------0-------0------|
E|-------------------------------|-------------------------------|

e|------- ------- 9------ -------|------- ------- ------- -------|
B|---------------10--------------|-------------------------------|
G|----------------9--------------|----------------5-/-7---5------|
D|-------------------------------|--------7-------5-/-7---5------|
A|-------------------------------|--------7-------3-/-5---3------|
E|-------------------------------|--------5----------------------|



  A                                               G   D
e|------- ------- ------- -------|------- ------- 3---2-- -------|
B|2---2---2---2---2-----------2-2|2-------2-------3---3----------|
G|2---2---2---2---2-----------2-2|2-------2-------0---2----------|
D|2---2---2---2---2-----------2-2|2-------2-------0--------------|
A|0---0---0---0---0-----------0-0|0-------0-------2--------------|
E|-------------------------------|----------------3--------------|
          I   asked   Bobby       Dylan
e|------- ------- 9------ -------|------- ------- ------- -------|
B|---------------10--------------|-------------------------------|
G|----------------9--------------|----------------5-/-7---5------|
D|7------------------------------|--------7-------5-/-7---5------|
A|7------------------------------|--------7-------3-/-3---3------|
E|5------------------------------|--------5----------------------|



  A                                               G   D
e|------- ------- ------- -------|------- ------- 3---2-- -------|
B|2---2---2---2---2-----------2-2|2---2---2---2---3---3----------|
G|2---2---2---2---2-----------2-2|2---2---2---2---0---2----------|
D|2---2---2---2---2-----------2-2|2---2---2---2---0--------------|
A|0---0---0---0---0-----------0-0|0---0---0---0---2--------------|
E|-------------------------------|----------------3--------------|
              I   asked   The Beatles
e|------- ------- 9------ -------|------- ------- ------- -------|
B|---------------10--------------|-------------------------------|
G|----------------9--------------|----------------5-/-7---5------|
D|7------------------------------|--------7-------5-/-7---5------|
A|7------------------------------|--------7-------3-/-3---3------|
E|5------------------------------|--------5----------------------|



  A                                               G   D
e|------- ------- ------- -------|------- ------- 3---2-- -------|
B|2---2---2---2---2-----------2-2|2---2---2---2---3---3----------|
G|2---2---2---2---2-----------2-2|2---2---2---2---0---2----------|
D|2---2---2---2---2-----------2-2|2---2---2---2---0--------------|
A|0---0---0---0---0-----------0-0|0---0---0---0---2--------------|
E|-------------------------------|----------------3--------------|
      I   asked   Timothy         Leary               But he 
e|------- ------- 9------ -------|------- ------- ------- -------|
B|---------------10--------------|-------------------------------|
G|----------------9--------------|----------------5-/-7---5------|
D|7------------------------------|--------7-------5-/-7---5------|
A|7------------------------------|--------7-------3-/-3---3------|
E|5------------------------------|--------5----------------------|



  A
e|------- ------- ------- -------|------- ------- ------- -------|
B|2---2---2---2---2-----------2-2|2-------2-------2-------2------|
G|2---2---2---2---2-----------2-2|2-------2-------2-------2------|
D|2---2---2---2---2-----------2-2|2-------2-------2-------2------|
A|0---0---0---0---0-----------0-0|0-------0-------0-------0------|
E|-------------------------------|-------------------------------|
  couldn't        help    me  either
e|------- ------- 9------ -------|------- ------- ------- -------|
B|---------------10--------------|-------------------------------|
G|----------------9--------------|----------------5-/-7---5------|
D|7------------------------------|--------7-------5-/-7---5------|
A|7------------------------------|--------7-------3-/-3---3------|
E|5------------------------------|--------5----------------------|



  A                                               G   D
e|2------ 2------ 2------ ----2-2|2---2-- 2---2-- 3---0-- -------|
B|3-------3-------3-----------3-3|3---3---3---3---3---1----------|
G|2-------2-------2-----------2-2|2---2---2---2---0---0----------|
D|0-------0-------0-----------0-0|0---0---0---0---0---2----------|
A|-------------------------------|----------------2---3----------|
E|-------------------------------|----------------3---3----------|
  seeker
e|------- ------- 9------ -------|------- ------- ------- -------|
B|---------------10--------------|-------------------------------|
G|7---------------9--------------|--------7-------5-------5------|
D|7------------------------------|--------7-------5-------5------|
A|5------------------------------|--------5-------3-------3------|
E|-------------------------------|-------------------------------|



  D
e|2---2-- 2---2-- 2------ ----2-2|2------ 2------ 2------ 2------|
B|3---3---3---3---3-----------3-3|3-------3-------3-------3------|
G|2---2---2---2---2-----------2-2|2-------2-------2-------2------|
D|0---0---0---0---0-----------0-0|0-------0-------0-------0------|
A|-------------------------------|-------------------------------|
E|-------------------------------|-------------------------------|
                     I've been    searching       low     and high
e|------- ------- 9------ -------|------- ------- ------- -------|
B|---------------10--------------|-------------------------------|
G|7---------------9--------------|--------7-------5-------5------|
D|7------------------------------|--------7-------5-------5------|
A|5------------------------------|--------5-------3-------3------|
E|-------------------------------|-------------------------------|




  A                                               G   D
e|------- ------- ------- -------|------- ------- 3---2-- -------|
B|2---2---2---2---2-----------2-2|2-------2-------3---3----------|
G|2---2---2---2---2-----------2-2|2-------2-------0---2----------|
D|2---2---2---2---2-----------2-2|2-------2-------0--------------|
A|0---0---0---0---0-----------0-0|0-------0-------2--------------|
E|-------------------------------|----------------3--------------|

e|------- ------- 9------ -------|------- ------- ------- -------|
B|---------------10--------------|-------------------------------|
G|----------------9--------------|----------------5-------5------|
D|7------------------------------|--------7-------5-------5------|
A|7------------------------------|--------7-------3-------3------|
E|5------------------------------|--------5----------------------|



  A                                                       Gadd9
e|------- ------- ------- -------|------- ------- ------- -------|
B|2---2---2---2---2-----------2-2|2-------2-------2-------0------|
G|2---2---2---2---2-----------2-2|2-------2-------2-------0------|
D|2---2---2---2---2-----------2-2|2-------2-------2-------0------|
A|0---0---0---0---0-----------0-0|0-------0-------0-------0------|
E|-------------------------------|-------------------------------|

e|------- ------- 9------ -------|------- ------- ------- -------|
B|---------------10--------------|-------------------------------|
G|----------------9--------------|-------------------------------|
D|7------------------------------|-------------------------------|
A|7------------------------------|-------------------------------|
E|5------------------------------|-------------------------------|



  G   C
e|------- ------- ------- -------|------- ------- ------- -------|
B|0---1--------------------------|-------------------------------|
G|0---0--------------------------|-------------------------------|
D|0---2--------------------------|-------------------------------|
A|2---3--------------------------|-------------------------------|
E|3---3--------------------------|-------------------------------|
              I   won't   get to  get     what I'm after

                                  x       X   X   X   X   X
  C   G
e|------- ------- ------- -------|------- ------- ------- -------|
B|1---0--------------------------|-------------------------------|
G|0---0--------------------------|-------------------------------|
D|2---0--------------------------|-------------------------------|
A|3---2--------------------------|-------------------------------|
E|3---3--------------------------|-------------------------------|
                  Till        the day     I               die


  A                                               G   D
e|------- ------- ------- -------|------- ------- 3---2-- -------|
B|2---2---2---2---2-----------2-2|2-------2-------3---3----------|
G|2---2---2---2---2-----------2-2|2-------2-------0---2----------|
D|2---2---2---2---2-----------2-2|2-------2-------0--------------|
A|0---0---0---0---0-----------0-0|0-------0-------2--------------|
E|-------------------------------|----------------3--------------|    

e|------- ------- 9------ -------|------- ------- ------- -------|
B|---------------10--------------|-------------------------------|
G|----------------9--------------|----------------5-/-7---5------|
D|-------------------------------|--------7-------5-/-7---5------|
A|-------------------------------|--------7-------3-/-3---3------|
E|-------------------------------|--------5----------------------|


                                x x  x  x x  x  x x  x  x x  x  x
  A
e|------- ------- ------- -------|------- ------- ------- -------|
B|2---2---2---2---2--------------|2---------------2-------2------|
G|2---2---2---2---2--------------|2---------------2-------2------|
D|2---2---2---2---2--------------|2---------------2-------2------|
A|0---0---0---0---0--------------|0---------------0-------0------|
E|-------------------------------|-------------------------------|

e|------- ------- ------- -------|------- ------- ------- -------|
B|-------------------------------|-------------------------------|
G|-------------------------------|-------------------------------|
D|7------------------------------|-------------------------------|
A|7------------------------------|-------------------------------|
E|5------------------------------|-------------------------------|



  D
e|2------ ----2-- 2------ ----2--|2------ ----2-- 2------ x------|
B|3-----------3---3-----------3--|3-----------3---3-------x------|
G|2-----------2---2-----------2--|2-----------2---2-------x------|
D|0-----------0---0-----------0--|0-----------0---0-------x------|
A|-------------------------------|-------------------------------|
E|-------------------------------|-------------------------------|
          People  tend    to  hate    me
e|1212121212121212121212121212122|1212121212121212------- -------|
B|-------------------------------|----------------1010101010101010
G|-------------------------------|-------------------------------|
D|-------------------------------|-------------------------------|
A|-------------------------------|-------------------------------|
E|-------------------------------|-------------------------------|




e|2------ ----2-- 2------ ----2--|2------ ----2-- 2------ x------|
B|3-----------3---3-----------3--|3-----------3---3-------x------|
G|2-----------2---2-----------2--|2-----------2---2-------x------|
D|0-----------0---0-----------0--|0-----------0---0-------x------|
A|-------------------------------|-------------------------------|
E|-------------------------------|-------------------------------|
         'Cause I never       smile                       as  I
e|1212121212121212121212121212122|12121212121212121414141417171717
B|-------------------------------|-------------------------------|
G|-------------------------------|-------------------------------|
D|-------------------------------|-------------------------------|
A|-------------------------------|-------------------------------|
E|-------------------------------|-------------------------------|


[ Tab from: http://www.guitartabs.cc/tabs/w/who/the_seeker_tab_ver_4.html ]
  A
e|------- ------- ------- -------|------- ------- ------- -------|
B|2-----------2---2-----------2--|2-----------2---2-------2------|
G|2-----------2---2-----------2--|2-----------2---2-------2------|
D|2-----------2---2-----------2--|2-----------2---2-------2------|
A|0-----------0---0-----------0--|0-----------0---0-------0------|
E|-------------------------------|-------------------------------|
  ransack             their   homes, They want to shake   my  hand
e|1212121212121212121212121212122|12121212121212121010101012121212
B|-------------------------------|-------------------------------|
G|-------------------------------|-------------------------------|
D|-------------------------------|-------------------------------|
A|-------------------------------|-------------------------------|
E|-------------------------------|-------------------------------|




e|------- ------- ------- -------|------- ------- ------- -------|
B|2-----------2---2-----------2--|2-----------2---2-------2------|
G|2-----------2---2-----------2--|2-----------2---2-------2------|
D|2-----------2---2-----------2--|2-----------2---2-------2------|
A|0-----------0---0-----------0--|0-----------0---0-------0------|
E|-------------------------------|-------------------------------|

e|1212121212121212121212121212121212121212121212121212121212-----|
B|1010101010101010101010101010101010101010101010101010101010-----|
G|-------------------------------|-------------------------------|
D|-------------------------------|-------------------------------|
A|-------------------------------|-------------------------------|
E|-------------------------------|-------------------------------|



  D
e|2------ ----2-- 2------ ----2--|2------ ----2-- 2------ x------|
B|3-----------3---3-----------3--|3-----------3---3-------x------|
G|2-----------2---2-----------2--|2-----------2---2-------x------|
D|0-----------0---0-----------0--|0-----------0---0-------x------|
A|-------------------------------|-------------------------------|
E|-------------------------------|-------------------------------|
          Focusing    on      nowhere     
e12/14141414141414141414141414141414141415151515151616161612121212
B|-------------------------------|-------------------------------|
G|-------------------------------|-------------------------------|
D|-------------------------------|-------------------------------|
A|-------------------------------|-------------------------------|
E|-------------------------------|-------------------------------|




e|2------ ----2-- 2------ ----2--|2------ 2------ 2------ 2------|
B|3-----------3---3-----------3--|3-------3-------3-------3------|
G|2-----------2---2-----------2--|2-------2-------2-------2------|
D|0-----------0---0-----------0--|0-------0-------0-------0------|
A|-------------------------------|-------------------------------|
E|-------------------------------|-------------------------------|
       Investigating          miles                       I'm a 
e|1414141414141414141414141414141414141414141414141515151514141414
B|-------------------------------|-------------------------------|
G|-------------------------------|-------------------------------|
D|-------------------------------|-------------------------------|
A|-------------------------------|-------------------------------|
E|-------------------------------|-------------------------------|



  e
e|------- ------- 0------ ----0--|0------ 0---0-- ----0-- 0------|
B|----------------0-----------0--|0-------0---0-------0---0------|
G|----------------1-----------1--|1-------1---1-------1---1------|
D|2-------2-------2-----------2--|2-------2---2-------2---2------|
A|2-------2-------2-----------2--|2-------2---2-------2---2------|
E|0-------0-------0-----------0--|0-------0---0-------0---0------|
  seeker          I'm     a       really      desperate           
e|------- ------- ------- -------|------- ------- ------- -------|
B|1414141414141414121212121212121215151515151515151414141414141414
G|-------------------------------|-------------------------------|
D|-------------------------------|-------------------------------|
A|-------------------------------|-------------------------------|
E|-------------------------------|-------------------------------|




e|0------ ------- ------- -------|------- ------- ------- -------|
B|0------------------------------|-------------------------------|
G|1------------------------------|-------------------------------|
D|2------------------------------|-------------------------------|
A|2------------------------------|-------------------------------|
E|0------------------------------|-------------------------------|
   man
e|12----- ------- ------- -------|------- ------- ------- -------|
B|-------------------------------|-------------------------------|
G|-------------------------------|-------------------------------|
D|-------------------------------|-------------------------------|
A|-------------------------------|-------------------------------|
E|-------------------------------|-------------------------------|


   Guitar solo

e|9---9-- 9---9-- 9---9-- 9---9--|9------ 9------ 9---9-- -------|
B10--10--10--19--10--10--10--10--10--10--12--10--10--10--10------|
G|9---9---9---9---9---9---9---9--|9-------9------11---9---9---6--|
D|-------------------------------|------------------------9---7--|
A|-------------------------------|-------------------------------|
E|-------------------------------|-------------------------------|




e|------- 9---9--|------- ------- ------- -------|
B|-------10--10--|-------------------------------|
G|6-------9---9--|----5---6-------5---6-------5--|
D|7--------------|----6---7-------6---7-------6--|
A|---------------|7-----------7-----------7------|
E|---------------|-------------------------------|




e|------- ------- -------|
B|-----------------------|
G|6----------------------|
D|7-------7-------7------|
A|----7---7-------7------|
E|-----------------------|




e12---x-- x--12-- x---x--12---x--|x--12-- x---x-- -------|
B10---x---x--10---x---x--10---x--|x--10---x---x----------|
G|9---x---x---9---x---x---9---x--|x---9---x---x----------|
D|-------------------------------|-----------------------|
A|-------------------------------|-----------------------|
E|-------------------------------|-----------------------|




e|8---8-- 8---5-- 8---8-- 8---5--|8---5-- ------- ------- -------|
B|7---7---7---5---7---7---7---5--|7---5----7---------------------|
G|-------------------------------|---------7---7---4---5---------|
D|-------------------------------|-------------7---4---5--7---7--|
A|-------------------------------|------------------------7---7--|
E|-------------------------------|-------------------------------|




e|------- 12----- ---12-- -------|12----- 10----- ------- -------|
B|--------10--9-H-10-10---9-H-10-|10--10--10------12--11--10--10-|
G|-------------------------------|-----------------9---8---7---7-|
D|-------------------------------|-------------------------------|
A|-------------------------------|-------------------------------|
E|-------------------------------|-------------------------------|




e|---12-- ---10-- ------- -------|------- ------- ------- -------|
B|---10------10------10----------|---10--------------10----------|
G|----------------9---9---9---7--|9---9---9---7---9---9---9------|        
D|----------------9-------9---7--|9-------9---7---9-------9------|
A|-------------------------------|-------------------------------|
E|-------------------------------|-------------------------------|




e|------- 9------ ------- -------|------- ------- ------- -------|
B|-------10----------13\12-------12-----------7-------6---7------|
G|--------9-----------9------11--|9-------9---5-------4---5------|
D|-------------------------------|--------7-------7-----------5--|
A|-------------------------------|-------------------------------|
E|-------------------------------|-------------------------------|




e|------- ------- ------- -------|------- ------- ------- -------|
B|6---7-------6---7-------6---7--|----6---7-------6---7----------|
G|4---5-------4---5-------4---5--|----4---5-------4---5---9------|
D|--------7-----------7----------|7-----------7-----------7------|
A|-------------------------------|-------------------------------|
E|-------------------------------|-------------------------------|



  G   C
e|------- ------- ------- -------|------- ------- ------- -------|
B|0---1--------------------------|-------------------------------|
G|0---0--------------------------|-------------------------------|
D|0---2--------------------------|-------------------------------|
A|2---3--------------------------|-------------------------------|
E|3---3--------------------------|-------------------------------|
              I   won't   get to  get     what I'm after

                                  
  C   G
e|------- ------- ------- -------|------- ------- ------- -------|
B|1---3--------------------------|-------------------------------|
G|0---4--------------------------|-------------------------------|
D|2---5--------------------------|-------------------------------|
A|3---5--------------------------|-------------------------------|
E|3---3--------------------------|-------------------------------|
                  Till        the day     I               die



e|9---9-- ----9-- 9------ 9------|9------ 9------ ------- -------|
B12--10------12--10------10------10--10--12--10--10--10--10------|
G|9---9-------9---9-------9------|9-------9---9--11---9---9------|
D|-------------------------------|------------------------9------|
A|-------------------------------|-------------------------------|
E|-------------------------------|-------------------------------|


                                  x  x  x x  x  x X  X  X X  X  X

e|------- 9------ ----9-- -------|------- 9------ ------- -------|
B|-------10----------12------10--12------10----------------------|
G|--------9-----------9-------9--|9-------9----------------------|
D|-------------------------------|-------------------------------|
A|-------------------------------|-------------------------------|
E|-------------------------------|-------------------------------|



  D
e|2------ ----2-- 2------ ----2--|2------ ----2-- 2------ x------|      
B|3-----------3---3-----------3--|3-----------3---3-------x------|                 
G|2-----------2---2-----------2--|2-----------2---2-------x------|
D|0-----------0---0-----------0--|0-----------0---0-------x------|
A|-------------------------------|-------------------------------|
E|-------------------------------|-------------------------------|
      I   learned how     to  raise   my      voice       in  anger
e|1212121212121212121212121212121212121212121212121212121212121212
B|-------------------------------|-------------------------------|
G|-------------------------------|-------------------------------|
D|-------------------------------|-------------------------------|
A|-------------------------------|-------------------------------|
E|-------------------------------|-------------------------------|




e|2------ ----2-- 2------ ----2--|2------ ----2-- 2------ -------|
B|3-----------3---3-----------3--|3-----------3---3-------0------|
G|2-----------2---2-----------2--|2-----------2---2-------0------|
D|0-----------0---0-----------0--|0-----------0---0-------0------|
A|-------------------------------|-------------------------------|
E|-------------------------------|-------------------------------|
                                                  Yeah,   but
e|1212121212121212121212121212121212121212121214121414141415151215
B|-------------------------------|-------------------------------|
G|-------------------------------|-------------------------------|
D|-------------------------------|-------------------------------|
A|-------------------------------|-------------------------------|
E|-------------------------------|-------------------------------|

e|1212141414141414151515151515151517171717171717171717171717171717
B|-------------------------------|-------------------------------|
G|-------------------------------|-------------------------------|
D|-------------------------------|-------------------------------|
A|-------------------------------|-------------------------------|
E|-------------------------------|-------------------------------|



  A
e|------- ------- ------- -------|------- ------- ------- -------|
B|2---------------2-----------2--|2-------2-------2-------2------|
G|2---------------2-----------2--|2-------2-------2-------2------|
D|2---------------2-----------2--|2-------2-------2-------2------|
A|0---------------0-----------0--|0-------0-------0-------0------|
E|-------------------------------|-------------------------------|
  look at         my          face,       ain't   this a      smile?
e|1212121212121212121212121212121212121212121214141414141415151515
B|-------------------------------|-------------------------------|
G|-------------------------------|-------------------------------|
D|-------------------------------|-------------------------------|
A|-------------------------------|-------------------------------|
E|-------------------------------|-------------------------------|




e|------- ------- ------- -------|------- ------- ------- -------|
B|2---------------2-----------2--|--------2-------2-------2------|
G|2---------------2-----------2--|--------2-------2-------2------|
D|2---------------2-----------2--|--------2-------2-------2------|
A|0---------------0-----------0--|--------0-------0-------0------|
E|-------------------------------|-------------------------------|
                                                               I'm 
e|------- ------- ------- -------|------- ------- ------- -------|
B|1414141414141414141414141414141414141414141414141414141414141414
G|-------------------------------|-------------------------------|
D|-------------------------------|-------------------------------|
A|-------------------------------|-------------------------------|
E|-------------------------------|-------------------------------|

e|------- ------- 10---12 --12---|12---10 --10--- 10---9- --9----|
B|-------------------------------|-------------------------------|
G|-------------------------------|-------------------------------|
D|-------------------------------|-------------------------------|
A|-------------------------------|-------------------------------|
E|-------------------------------|-------------------------------|



  D
e|2------ ----2-- 2------ ----2--|2------ ----2-- 2------ x------|
B|3-----------3---3-----------3--|3-----------3---3-------x------|
G|2-----------2---2-----------2--|2-----------2---2-------x------|
D|0-----------0---0-----------0--|0-----------0---0-------x------|
A|-------------------------------|-------------------------------|
E|-------------------------------|-------------------------------|
  happy           when life's     good                        And      
e|------- ------- ------- -------|------- ------- ------- -------|       
B|15151515151515151515151515151515-------------------------------|
G|-------------------------------|-------------------------------|
D|-------------------------------|-------------------------------|
A|-------------------------------|-------------------------------|
E|-------------------------------|-------------------------------|




e|2------ ----2-- 2------ ----2--|2------ ----2-- 2------ 2---2--|
B|3-----------3---3-----------3--|3-----------3---3-------3---3--|
G|2-----------2---2-----------2--|2-----------2---2-------2---2--|
D|0-----------0---0-----------0--|0-----------0---0-------0---0--|
A|-------------------------------|-------------------------------|
E|-------------------------------|-------------------------------|
  when it's       bad  I          cry                I've got
e|1212121212121212121212121212121212121212121212121414141414141414
B|-------------------------------|-------------------------------|
G|-------------------------------|-------------------------------|
D|-------------------------------|-------------------------------|
A|-------------------------------|-------------------------------|
E|-------------------------------|-------------------------------|



  e
e|0------ 0------ 0---0-- 0---0--|0------ 0------ ----0-- 0------|
B|0-------0-------0---0---0---0--|0-------0-----------0---0------|
G|1-------1-------1---1---1---1--|1-------1-----------1---1------|
D|2-------2-------2---2---2---2--|2-------2-----------2---2------|
A|2-------2-------2---2---2---2--|2-------2-----------2---2------|
E|0-------0-------0---0---0---0--|0-------0-----------0---0------|
  values          but I           don't   know    how     or
e|121212121212121216161616161616161414141414141414------- -------|
B|-------------------------------|----------------1515151515151515
G|-------------------------------|-------------------------------|
D|-------------------------------|-------------------------------|
A|-------------------------------|-------------------------------|
E|-------------------------------|-------------------------------|

 


e|0------ ------- ------- -------|------- ------- ------- -------|    
B|0------------------------------|-------------------------------|
G|1------------------------------|-------------------------------|
D|2------------------------------|-------------------------------|
A|2------------------------------|-------------------------------|
E|0------------------------------|-------------------------------|
  why
e|12----- ------- ------- -------|------- ------- ------- -------|
B|-------------------------------|----------------5-----------5--|
G|-------------------------------|----------------5-H-6-------5-H|
D|-------------------------------|------------------------7------|
A|-------------------------------|-------------------------------|
E|-------------------------------|-------------------------------|



  A                                               C   D
e|------- ------- ------- -------|------- ------- 3---5-- -------|
B|2---2---2---2---2-----------2-2|2-------2-------5---7----------|
G|2---2---2---2---2-----------2-2|2-------2-------5---7----------|
D|2---2---2---2---2-----------2-2|2-------2-------5---7----------|
A|0---0---0---0---0-----------0-0|0-------0-------3---5----------|
E|-------------------------------|-------------------------------|
              I'm looking for me 
e|------- ------- 9------ -------|------- ------- ------- -------|
B|5--------------10--------------|-------------------------------|
G|6---------------9--------------|----------------5-/-7---5------|
D|----7--------------------------|----------------5-/-7---5------|
A|-------------------------------|----------------3-/-3---3------|
E|-------------------------------|-------------------------------|



  A                                               C   D
e|------- ------- ------- -------|------- ------- 3---5-- -------|
B|2---2---2---2---2-----------2-2|2---2---2---2---5---7----------|
G|2---2---2---2---2-----------2-2|2---2---2---2---5---7----------|
D|2---2---2---2---2-----------2-2|2---2---2---2---5---7----------|
A|0---0---0---0---0-----------0-0|0---0---0---0---3---5----------|
E|-------------------------------|-------------------------------|
           You're looking for you                              We're 
e|------- ------- 9------ -------|------- ------- ------- -------|
B|---------------10--------------|-------------------------------|
G|----------------9--------------|----------------5-/-7---5------|
D|7------------------------------|--------7-------5-/-7---5------|
A|7------------------------------|--------7-------3-/-3---3------|
E|5------------------------------|--------5----------------------|



  A                                               C   D
e|------- ------- ------- -------|------- ------- 3---5-- -------|
B|2---2---2---2---2-----------2-2|2---2-------2---5---7----------|
G|2---2---2---2---2-----------2-2|2---2-------2---5---7----------|
D|2---2---2---2---2-----------2-2|2---2-------2---5---7----------|
A|0---0---0---0---0-----------0-0|0---0-------0---3---5----------|
E|-------------------------------|-------------------------------|
  looking in     at      each    other           And     we   
e|------- ------- 9------ -------|------- ------- ------- -------|
B|---------------10--------------|-------------------------------|
G|----------------9--------------|----------------5-/-7---5------|
D|7------------------------------|--------7-------5-/-7---5------|
A|7------------------------------|--------7-------3-/-3---3------|
E|5------------------------------|--------5----------------------|



  A
e|------- ------- ------- -------|------- ------- ------- -------|
B|2---2-------2---2-----------2-2|2-------2-------2-------2------|
G|2---2-------2---2-----------2-2|2-------2-------2-------2------|
D|2---2-------2---2-----------2-2|2-------2-------2-------2------|
A|0---0-------0---0-----------0-0|0-------0-------0-------0------|
E|-------------------------------|-------------------------------|
  don't   know    what    to  do          They    call    me  the
e|------- ------- 9------ -------|------- ------- ------- -------|
B|---------------10--------------|-------------------------------|
G|----------------9--------------|----------------5--------------|
D|7------------------------------|--------7-------5--------------|
A|7------------------------------|--------7-------3--------------|
E|5------------------------------|--------5----------------------|



  D                                               C
e|2------ 2---2-- 2------ ----2-2|2---2-- 2---2-- ------- -------|
B|3-------3---3---3-----------3-3|3---3---3---3---1---1----------|
G|2-------2---2---2-----------2-2|2---2---2---2---0---0----------|
D|0-------0---0---0-----------0-0|0---0---0---0---2---2----------|
A|-------------------------------|----------------3---3----------|
E|-------------------------------|----------------3---3----------|
  seeker
e|------- ------- ------- -------|------- ------- ------- -------|
B|-------------------------------|-------------------------------|
G|7---------------7--------------|--------7-------5-------5------|
D|7---------------7--------------|--------7-------5-------5------|
A|5---------------5--------------|--------5-------3-------3------|
E|-------------------------------|-------------------------------|

e|------- ------- 9------ -------|------- ------- ------- -------|
B|---------------10--------------|-------------------------------|
G|----------------9--------------|-------------------------------|
D|-------------------------------|-------------------------------|
A|-------------------------------|-------------------------------|
E|-------------------------------|-------------------------------|



  D
e|2---2-- 2---2-- 2------ ----2-2|2------ 2------ 2---2-- 2------|
B|3---3---3---3---3-----------3-3|3-------3-------3---3---3------|
G|2---2---2---2---2-----------2-2|2-------2-------2---2---2------|
D|0---0---0---0---0-----------0-0|0-------0-------0---0---0------|
A|-------------------------------|-------------------------------|
E|-------------------------------|-------------------------------|
                     I've been    searching       low     and high
e|------- ------- 9------ -------|------- ------- ------- -------|
B|---------------10--------------|-------------------------------|
G|7---------------9--------------|--------7-------5-------5------|
D|7------------------------------|--------7-------5-------5------|
A|5------------------------------|--------5-------3-------3------|
E|-------------------------------|-------------------------------|



  A                                               C   D
e|------- ------- ------- -------|------- ------- 3---5-- -------|
B|2---2---2---2---2-----------2--|----2-------2---5---7----------|
G|2---2---2---2---2-----------2--|----2-------2---5---7----------|
D|2---2---2---2---2-----------2--|----2-------2---5---7----------|
A|0---0---0---0---0-----------0--|----0-------0---3---5----------|
E|-------------------------------|-------------------------------|

e|------- ------- 9------ -------|------- ------- ------- -------|
B|---------------10--------------|-------------------------------|
G|----------------9--------------|----------------5-/-7---5------|
D|7------------------------------|--------7-------5-/-7---5------|
A|7------------------------------|--------7-------3-/-5---3------|
E|5------------------------------|--------5----------------------|



  A
e|------- ------- ------- -------|------- ------- ------- -------|
B|2---2---2---2---2-----------2-2|2-------2-------2-------2------|
G|2---2---2---2---2-----------2-2|2-------2-------2-------2------|
D|2---2---2---2---2-----------2-2|2-------2-------2-------2------|
A|0---0---0---0---0-----------0-0|0-------0-------0-------0------|
E|-------------------------------|-------------------------------|

e|------- ------- 9------ -------|------- ------- ------- -------|
B|---------------10--------------|-------------------------------|
G|----------------9--------------|-------------------------------|
D|7------------------------------|-------------------------------|
A|7------------------------------|-------------------------------|
E|5------------------------------|-------------------------------|



  G   C
e|------- ------- ------- -------|------- ------- ------- -------|
B|0---1--------------------------|-------------------------------|
G|0---0--------------------------|-------------------------------|
D|0---2--------------------------|-------------------------------|
A|2---3--------------------------|-------------------------------|
E|3---3--------------------------|-------------------------------|
              I   won't   get to  get     what I'm after

                                  x       X   X       X   X
  C   G
e|------- ------- ------- -------|------- ------- ------- -------|
B|1---0--------------------------|-------------------------------|
G|0---0--------------------------|-------------------------------|
D|2---0--------------------------|-------------------------------|
A|3---2--------------------------|-------------------------------|
E|3---3--------------------------|-------------------------------|
                  Till        the day     I               die


  A                                               G   D
e|------- ------- ------- -------|------- ------- 3---2-- -------|
B|2---2---2---2---2---2-------2-2|2-------2-------3---3----------|
G|2---2---2---2---2---2-------2-2|2-------2-------0---2----------|
D|2---2---2---2---2---2-------2-2|2-------2-------0---0----------|
A|0---0---0---0---0---0-------0-0|0-------0-------2--------------|
E|-------------------------------|----------------3--------------|    


                                 (.
  G   C               G           A
e|------- ------- ------- -------|0------ ------- ------- -------|
B|0---1-----------1---0----------|2------------------------------|
G|0---0-----------0---0----------|2------------------------------|
D|0---2-----------2---0----------|2------------------------------|
A|2---3-----------3---2----------|0------------------------------|
E|3---3-----------3---3----------|-------------------------------|








        B  Bend
        R  Release
        /  Slide up
        \  Slide down
        H  Hammer-on
        P  Pull-off
        ~  Vibrato
        +  Harmonic
        x  Mute note
        .  Play note like a dot in standard notation
        ^  Ties two notes together
        (. Pause
Comments